System Of A Down - Toxicity Chords & Tabs

 

Toxicity Chords & Tabs

System Of A Down Chords & Tabs

Version: 9 Type: Tab 0 ratings
1 star 2 stars 3 stars 4 stars 5 stars
comments

Toxicity Tab

System of a Down
"Toxicity"
Dropped D Tuning


I have seen several different ways to play this but this IS the correct way...
I have the book if you want to argue. Well it is rather lengthy, straight through, 
no crap. Be patient with the verse and intro...they can be boring to sit there and learn



Intro

|-----------------------------------------------|
|-----------------------------------------------|
|-----------------------------------------------|
|-------7------7-----7-----7-----5-----5--------|
|----5-----5------5-----5-----5-----7-----------|
|-----------------------------------------------|

|-----------------------------------------------|
|-----------------------------------------------|
|-----------------------------------------------|
|-------10-----10-----10-----10-----10-----10---|
|---/8------8------8------8------8------8-------|
|-----------------------------------------------|

|-----------------------------------------------|
|-----------------------------------------------|
|-----------------------------------------------|
|-------7-----5-----5-----5-----7-----7---------|
|----5-----5-----7-----8-----8-----5------------|
|-----------------------------------------------|

|-----------------------------------------------|
|-----------------------------------------------|
|-----------------------------------------------|
|----------10-----12-----12--10-----10--8-----8-|
|---(5)/8------8------8----------8---------8----|
|-----------------------------------------------|

|-----------------------------------------------|
|-----------------------------------------------|
|*---------------------------------------------*|
|*-----------------------8---8-----7-----7-7-7-*|
|---0------------0-------8---8-----7-----7-7-7--|
|---0----3-2-0-2-0-------8---8-----7-----7-7-7--| x2

|-------------------------------------------------|
|-------------------------------------------------|
|-------------------------------------------------|
|-------------------------------------------------|
|-------------------------------------------------|
|-3-2-0-2-0-0-3-2-0-2-0-0-3-2-0-2-0-0-3-2-0-2-0-0-|

|-----------------------------------------------|
|-----------------------------------------------|
|-----------------------------------------------|
|---8---8-8-8---7---7-7-7-----------------------|
|---8---8-8-8---7---7-7-7-----------------------|
|---8---8-8-8---7---7-7-7-----------------------|

Verse

|-----------------------------------------------|
|-----------------------------------------------|
|-----------------------------------------------|
|-----------------------------------------------|
|------0-----0-----0-----0-----0-----0----------|
|---0-----0-----0-----0-----0-----0-------------|

|-----------------------------------------------|
|-----------------------------------------------|
|-----------------------------------------------|
|-----------------------------------------------|
|------3-----3-----3-----3-----3-----3----------|
|---3-----3-----3-----3-----3-----3-------------|


|-----------------------------------------------|
|-----------------------------------------------|
|-----------------------------------------------|
|-----------------------------------------------|
|------0-----0-----0--1-----1-0-----0-----------|
|---0-----0-----0--------0-------0--------------|

|-----------------------------------------------|
|-----------------------------------------------|
|-----------------------------------------------|
|-----------------------------------------------|
|-------3-----3-----3-----3-----3-----3---------|
|---/3-----3-----3-----3-----3-----3------------|

|-----------------------------------------------|
|-----------------------------------------------|
|-------14------14------14----------------------|
|---12------12------12--------------------------|
|-----------------------------------------------|
|-----------------------------------------------|

|-----------------------------------------------|
|-----------------------------------------------|
|--------14------14------14---------------------|
|----12------12------12-------------------------|
|-----------------------------------------------|
|-----------------------------------------------|

|-----------------------------------------------|
|-------------------17--------------------------|
|-----------17----------17----------------------|
|--(12)/15------15----------15------------------|
|-----------------------------------------------|
|-----------------------------------------------|

|-----------------------------------------------|
|----18----------17-----------------------------|
|--------17----------17-------------------------|
|------------15----------15---------------------|
|-----------------------------------------------|
|-----------------------------------------------|

|-----------------------------------------------|
|-----------------------------------------------|
|-------14------14------14----------------------|
|---12------12------12--------------------------|
|-----------------------------------------------|
|-----------------------------------------------|

|-----------------------------------------------|
|-----------------------------------------------|
|-----------------------------------------------|
|---15------15--14------14----------------------|
|-------12----------12--------------------------|
|-----------------------------------------------|

|---------------------------------------------------|
|---------------------------------------------------|
|--------17------19------19--17------17--15------15-|
|---/15------15------15----------15----------15-----|
|---------------------------------------------------|
|---------------------------------------------------|
[ Tab from: http://www.guitartabs.cc/tabs/s/system_of_a_down/toxicity_tab_ver_9.html ]
   Eating seeds...
|-----------------------------------------------|
|-----------------------------------------------|
|-----------------------------------------------|
|-----------------------------------------------|
|-----------------------------------------------|
|----0---0-0---0---0-0-0---0---0-0---0---0-0-0--|

|-----------------------------------------------|
|-----------------------------------------------|
|-----------------------------------------------|
|-----------------------------------------------|
|-----------------------------------------------|
|----3---3-3---3---3-3-3---3---3-3---3---3-3-3--|

|-----------------------------------------------|
|-----------------------------------------------|
|-----------------------------------------------|
|-----------------------------------------------|
|-----------------------------------------------|
|----0---0-0---0---0-0-0---0---0-0---0---0-0-0--|

|-----------------------------------------------|
|-----------------------------------------------|
|-----------------------------------------------|
|-----------------------------------------------|
|-----------------------------------------------|
|----3---3-3---3---3-3-3---3---3-3---3---3-3-3--|

Chorus

|-----------------------------------------------|
|-----------------------------------------------|
|*---------------------------------------------*|
|*------------------8--8-8-8---7--7-7--7-7-7---*|
|---0-----------0---8--8-8-8---7--7-7--7-7-7----|
|---0---3-2-0-2-0---8--8-8-8---7--7-7--7-7-7----| 

  Somewhere...
|---------------------------------------------------|
|---------------------------------------------------|
|---------------------------------------------------|
|---------------------------------------------------|
|---------------------------------------------------|
|-3-2-0-2-0-0-3-2-0-2-0-0-3-2-0-2-0-0-3-2-0-2-0-0---|

|-----------------------------------------------|
|-----------------------------------------------|
|-----------------------------------------------|
|--8--8-8-8----7--7--7-7-7----------------------|
|--8--8-8-8----7--7--7-7-7----------------------|
|--8--8-8-8----7--7--7-7-7----------------------|

 Disorder...
|-----------------------------------------------|
|-----------------------------------------------|
|----------------------------------------------*|
|------------------8--8-8-8--7--7--7-7-7-------*| <--(back to 
|---0--------------8--8-8-8--7--7--7-7-7--------|   verse)
|---0---3-2-0-2-0--8--8-8-8--7--7--7-7-7--------|

Interlude
|-----------------------------------------------|
|-----------------------------------------------|
|-----------------------------------------------|
|-----------------------------------------------|
|-----------------------------------------------|
|---12---12-12--12-12-12--15-12-12--14b---------|

|-----------------------------------------------|
|-----------------------------------------------|
|-----------------------------------------------|
|-----------------------------------------------|
|-----------------------------------------------|
|---12---12-12--12-12-12--15-12-12--14~---------|

|-----------------------------------------------|
|-----------------------------------------------|
|-----------------------------------------------|
|-----------------------------------------------|
|-----------------------------------------------|
|---12---12-12--12-12-12--15-12-12--14b---------|

|-----------------------------------------------|
|-----------------------------------------------|
|-----------------------------------------------|
|-----------------------------------------------|
|-----------------------------------------------|
|---12---12-12--12-12-12--15-12-12--14/---------|

|-----------------------------------------------|
|-----------------------------------------------|
|*---------------------------------------------*|
|*---------------------------------------------*|
|-----------------------------------------------|
|---3-2-0-0-0-0-3-2-0-0-0-0---------------------| x4

|-----------------------------------------------|
|-----------------------------------------------|
|-----------------------------------------------|
|-----------------------------------------------|
|-----------------------------------------------|
|----0--0--0-0-0--3-2-0---2b--------------------| x4

|-----------------------------------------------|
|-----------------------------------------------|
|-----------------------------------------------|
|-----------------------------------------------|
|-----------------------------------------------|
|---3-2-0-0-0-0-3-2-0-0-0-0---------------------| x4

Outro
|-----------------------------------------------|
|-----------------------------------------------|
|-----------------------------------------------|
|-----------------------------------------------|
|-----------------------------------------------|
|---3-2-0-0-0-0-3-2-0-0-0-0---------------------| x4

  when I became the sun...
|-----------------------------------------------|
|-----------------------------------------------|
|-----------------------------------------------|
|-----------------------------------------------|
|-----------------------------------------------|
|---0----0--0----3-2-0--2b----------------------|

|-----------------------------------------------|
|-----------------------------------------------|
|-----------------------------------------------|
|-----------------------------------------------|
|-----------------------------------------------|
|---0--0---0-0-0--3-2-0----2b-------------------|

|-----------------------------------------------|
|-----------------------------------------------|
|-----------------------------------------------|
|-----------------------------------------------|
|-----------------------------------------------|
|---0----0--0----3-2-0--2b----------------------|

|-----------------------------------------------|
|-----------------------------------------------|
|-----------------------------------------------|
|-----------------------------------------------|
|-----------------------------------------------|
|---0-0---0-0-0--3-2-0--2-----------------------|
Comments