System Of A Down - Toxicity Chords & Tabs

 

Toxicity Chords & Tabs

System Of A Down Chords & Tabs

Version: 7 Type: Tab 0 ratings
1 star 2 stars 3 stars 4 stars 5 stars
comments

Toxicity Tab

   
System of a Down
Toxicity
tabbed by: mjwk_1986@yahoo.com

tuning - down one step, drop D - CGCFAD

Intro

D--------------------------------------------------------------------------
A--------------------------------------------------------------------------
F----14----14----14----14----14----14-----17----17----17----17----17----17-
C-12----12----12----12----12----12----/15----15----15----15----15----15----
G--------------------------------------------------------------------------
C--------------------------------------------------------------------------
PM.........................................................................

D---------------------------------------------------------------------------
A---------------------------------------------------------------------------
F----14----14----14-15----15-14----14-------17----19-17----17-15----15------
C-12----12----12-------12-------12----12/15----15-------15-------15---------
G---------------------------------------------------------------------------
C---------------------------------------------------------------------------
PM..................................................


D----------------------------------------------------------------------------------
A----------------------------------------------------------------------------------
F----------------------------------------------------------------------------------
C-------------------8---8--7-7-7-7-------------------------------------------------
G-0------------0----8---8--7-7-7-7-------------------------------------------------
C-0----3-2-0-2-0----8---8--7-7-7-7-3-2-0-2-0-0-3-2-0-2-0-0-3-2-0-2-0-0-3-2-0-2-0-0-

D---------------------
A---------------------
F---------------------
C-8---8-8-8-7---7-7-7-
G-8---8-8-8-7---7-7-7-
C-8---8-8-8-7---7-7-7-


Verse

D----------------------------------------------------------------------------
A--------------------------------------------------17-------18-------17------
F----14----14----14----14----14----14-----17----17----17-------17------17----
C-12----12----12----12----12----12----/15----15----------15-------15------15-
G----------------------------------------------------------------------------
C----------------------------------------------------------------------------
[ Tab from: http://www.guitartabs.cc/tabs/s/system_of_a_down/toxicity_tab_ver_7.html ]
D---------------------------------------------------------------------------
A---------------------------------------------------------------------------
F----14----14----14-15----15-14----14-------17----19-17----17-15----15------
C-12----12----12-------12-------12----12/15----15-------15-------15---------
G---------------------------------------------------------------------------
C---------------------------------------------------------------------------

Chorus

D----------------------------------------------------------------------------------
A----------------------------------------------------------------------------------
F----------------------------------------------------------------------------------
C-------------------8---8--7-7-7-7-------------------------------------------------
G-0------------0----8---8--7-7-7-7-------------------------------------------------
C-0----3-2-0-2-0----8---8--7-7-7-7-3-2-0-2-0-0-3-2-0-2-0-0-3-2-0-2-0-0-3-2-0-2-0-0-

D---------------------
A---------------------
F---------------------
C-8---8-8-8-7---7-7-7-
G-8---8-8-8-7---7-7-7-
C-8---8-8-8-7---7-7-7-

Interlude

D---------------------------------------------------------
A---------------------------------------------------------
F---------------------------------------------------------
C---------------------------------------------------------
G---------------------------------------------------------
C-12-12-12-12-12-15-12-12-14^-12-12-12-12-12-15-12-12-14v-

D---------------------------------------------------------
A---------------------------------------------------------
F---------------------------------------------------------
C---------------------------------------------------------
G---------------------------------------------------------
C-12-12-12-12-12-15-12-12-14^-12-12-12-12-12-15-12-12-14\-

D-------------------------:4:--------------------:4:-------------------------:4:
A-------------------------:t:--------------------:t:-------------------------:t:
F-------------------------:i:--------------------:i:-------------------------:i:
C-------------------------:m:--------------------:m:-------------------------:m:
G-------------------------:e:--------------------:e:-------------------------:e:
C-3-2-0-0-0-0-3-2-0-0-0-0-:s:-0-0-0-0-0-3-2-0-2^-:s:-3-2-0-0-0-0-3-2-0-0-0-0-:s:
PM..............................................................................

Outro

D-------------:8:-----------------:3:-------------------
A-------------:t:-----------------:t:-------------------
F-------------:i:-----------------:i:-------------------
C-------------:m:-----------------:m:-------------------
G-------------:e:-----------------:e:-------------------
C-3-2-0-0-0-0-:s:-0--0-0-3-2-0-2^-:s:-0-0-0-0-0-3-2-0-2-
PM......................................................

Comments