System Of A Down - Toxicity Chords & Tabs

 

Toxicity Chords & Tabs

System Of A Down Chords & Tabs

Version: 22 Type: Tab 0 ratings
1 star 2 stars 3 stars 4 stars 5 stars
comments

Toxicity Tab

   
Yo, this is for anyone who wants a good tab for this song.

Palm Muted

E|---------------------------------------
B|---------------------------------------
G|-----12----12----12----12----12----12--
D|--10----10----10----10----10----10-----
A|---------------------------------------
E|---------------------------------------

E|---------------------------------------
B|---------------------------------------
G|-----15----15----15----15----15----15--
D|-/13----13----13----13----13----13-----
A|---------------------------------------
E|---------------------------------------

E|---------------------------------------
B|---------------------------------------
G|----12----12----12-13----13-12----12---
D|-10----10----10-------10-------10------
A|---------------------------------------
E|---------------------------------------

E|---------------------------------------
B|---------------------------------------
G|----15----17----17-15----15-13----13---
D|-13----13----13-------13-------13------
A|---------------------------------------
E|---------------------------------------

Distortion

E|---------------------------------------
B|---------------------------------------
G|---------------------------------------
D|-10-10-10----10-10-10----6-6-66-5-5-55-
A|-10-10-10----10-10-10----6-6-66-5-5-55-
E|-8--8--8-----8--8--8-----4-4-44-3-3-33-

x4

No Distortion

E|---------------------------------------
B|---------------------------------------
G|-----12----12----12----12----12----12--
D|--10----10----10----10----10----10-----
A|---------------------------------------
E|---------------------------------------

E|---------------------------------------
B|---------------------------------------
G|-----15----15----15----15----15----15--
D|-/13----13----13----13----13----13-----
A|---------------------------------------
E|---------------------------------------

E|---------------------------------------
B|---------------------------------------
G|----12----12----12-13----13-12----12---
D|-10----10----10-------10-------10------
A|---------------------------------------
E|---------------------------------------

E|---------------------------------------
B|---------------------------------------
G|----15----17----17-15----15-13----13---
D|-13----13----13-------13-------13------
A|---------------------------------------
E|---------------------------------------
 
E|---------------------------------------
B|---------------------------------------
G|-----12----12----12----12----12----12--
D|--10----10----10----10----10----10-----
A|---------------------------------------
E|---------------------------------------

E|---------------------------------------
B|-----------15-------16-------15--------
G|-----15-------15-------15-------15-----
D|-/13----13-------13-------13-------13--
A|---------------------------------------
E|---------------------------------------

E|---------------------------------------
B|---------------------------------------
G|----12----12----12-13----13-12----12---
D|-10----10----10-------10-------10------
A|---------------------------------------
E|---------------------------------------
[ Tab from: http://www.guitartabs.cc/tabs/s/system_of_a_down/toxicity_tab_ver_22.html ]
E|---------------------------------------
B|---------------------------------------
G|----15----17----17-15----15-13----13---
D|-13----13----13-------13-------13------
A|---------------------------------------
E|---------------------------------------

E|---------------------------------------
B|---------------------------------------
G|-----12----12----12----12----12----12--
D|--10----10----10----10----10----10-----
A|---------------------------------------
E|---------------------------------------

E|---------------------------------------
B|-----------15-------16-------15--------
G|-----15-------15-------15-------15-----
D|-/13----13-------13-------13-------13--
A|---------------------------------------
E|---------------------------------------

E|---------------------------------------
B|---------------------------------------
G|----12----12----12-13----13-12----12---
D|-10----10----10-------10-------10------
A|---------------------------------------
E|---------------------------------------

E|---------------------------------------
B|---------------------------------------
G|----15----17----17-15----15-13----13---
D|-13----13----13-------13-------13------
A|---------------------------------------
E|---------------------------------------

Distortion

E|---------------------------------------
B|---------------------------------------
G|---------------------------------------
D|-10-10-10----10-10-10----6-6-66-5-5-55-
A|-10-10-10----10-10-10----6-6-66-5-5-55-
E|-8--8--8-----8--8--8-----4-4-44-3-3-33-

x4

E|---------------------------------------
B|---------------------------------------
G|---------------------------------------
D|---------------------------------------
A|---------------------------------------
E|-8-8-8-8-8-10/11-8-10------------------

x4

E|---------------------------------------
B|---------------------------------------
G|---------------------------------------
D|-10-10-10-10-10-10-10-10-10-10-10-10-10
A|-10-10-10-10-10-10-10-10-10-10-10-10-10
E|-8--8--8--8--8--8--8--8--8--8--8--8--8-

x4

E|---------------------------------------
B|---------------------------------------
G|---------------------------------------
D|---------------------------------------
A|---------------------------------------
E|-8-8-8-8-8-10/11-8-10------------------

x4

E|---------------------------------------
B|---------------------------------------
G|---------------------------------------
D|-10-10-10-10-10-10-10-10-10-10-10-10-10
A|-10-10-10-10-10-10-10-10-10-10-10-10-10
E|-8--8--8--8--8--8--8--8--8--8--8--8--8-

E|---------------------------------------
B|---------------------------------------
G|---------------------------------------
D|-10-10-10----10-10-10----6-6-66-5-5-55-
A|-10-10-10----10-10-10----6-6-66-5-5-55-
E|-8--8--8-----8--8--8-----4-4-44-3-3-33-

x4

E|---------------------------------------
B|---------------------------------------
G|---------------------------------------
D|-5-5-5-5-5-5-5-5-5-5-5-5-5-5-5-5-5-5-5-
A|-5-5-5-5-5-5-5-5-5-5-5-5-5-5-5-5-5-5-5-
E|-3-3-3-3-3-3-3-3-3-3-3-3-3-3-3-3-3-3-3-

x4

E|---------------------------------------
B|---------------------------------------
G|---------------------------------------
D|---------------------------------------
A|---------------------------------------
E|-8-8-8-8-8-10/11-8-10------------------

x4

On last note stop with your palm.


That's my tab, have fun with it. I think its pretty accurate.

                        Tabbed by Justin Greer
Comments