System Of A Down - Toxicity Chords & Tabs

 

Toxicity Chords & Tabs

System Of A Down Chords & Tabs

Version: 20 Type: Tab 0 ratings
1 star 2 stars 3 stars 4 stars 5 stars
comments

Toxicity Tab

   
Artist: System Of A Down
Song: Toxicity
Album: Toxicity
Tabbed by: Kim Mikal Torp aka The C@ncerM@n
Email: kim_mikal_torp@hotmail.com

Tuning: drop D, one step down (C G C F A D)

Intro:
-------------------------------------|--------------------------------------
-------------------------------------|--------------------------------------
----14----14----14----14----14----14-|----17----17----17----17----17----17--
-12----12----12----12----12----12----|-15----15----15----15----15----15-----
-------------------------------------|--------------------------------------
-------------------------------------|--------------------------------------

-------------------------------------|--------------------------------------
-------------------------------------|--------------------------------------
----14----14----14-15----15-14----14-|----17----19----19-17----17-15----15--
-12----12----12-------12-------12----|-15----15----15-------15-------15-----
-------------------------------------|--------------------------------------
-------------------------------------|--------------------------------------

Chorus:
----|------------|-------
----|------------|-------
----|------------|-3--2--
-0--|-3-2-0-0-2--|-3--2--
-0--|-3-2-0-0-2--|-1--0--2x
-0--|-3-2-0-0-2--|-------

-----------------|-------
-----------------|-------
-----------------|-3--2--
-3-2-0-2-0-0-----|-3--2--
-3-2-0-2-0-0--4x-|-1--0--
-3-2-0-2-0-0-----|-------

----|------------|-------
----|------------|-------
----|------------|-3--2--
-0--|-3-2-0-0-2--|-3--2--
-0--|-3-2-0-0-2--|-1--0--
-0--|-3-2-0-0-2--|-------

Verse:
-------------------------------------|--------------------------------------
-------------------------------------|--------------------------------------
----14----14----14----14----14----14-|----17----17----17----17----17----17--
-12----12----12----12----12----12----|-15----15----15----15----15----15-----
-------------------------------------|--------------------------------------
-------------------------------------|--------------------------------------

-------------------------------------|--------------------------------------
-------------------------------------|--------------------------------------
----14----14----14-15----15-14----14-|----17----19----19-17----17-15----15--
-12----12----12-------12-------12----|-15----15----15-------15-------15-----
-------------------------------------|--------------------------------------
-------------------------------------|--------------------------------------

-------------------------------------|--------------------------------------
-------------------------------------|-------------------17-----------------
----14----14----14----14----14----14-|----17----19----------------19--------
-12----12----12----12----12----12----|-15----15----15-15----15-15----15-15--
-------------------------------------|--------------------------------------
-------------------------------------|--------------------------------------

-------------------------------------|--------------------------------------
-------------------------------------|--------------------------------------
----14----14----14-15----15-14----14-|----17----19----19-17----17-15----15--
-12----12----12-------12-------12----|-15----15----15-------15-------15-----
-------------------------------------|--------------------------------------2x
-------------------------------------|--------------------------------------

Verse (bass) second half:
------------------------|------------------------
------------------------|------------------------
------------------------|------------------------
------------------------|------------------------
------------------------|------------------------2x
-0--0-0--0-0--0--0--2x--|-3--3-3--3-3--3--3--2x--

Chorus:
----|------------|-------
----|------------|-------
----|------------|-3--2--
-0--|-3-2-0-0-2--|-3--2--
-0--|-3-2-0-0-2--|-1--0--2x
-0--|-3-2-0-0-2--|-------

-----------------|-------
-----------------|-------
-----------------|-3--2--
-3-2-0-2-0-0-----|-3--2--
-3-2-0-2-0-0--4x-|-1--0--
-3-2-0-2-0-0-----|-------
[ Tab from: http://www.guitartabs.cc/tabs/s/system_of_a_down/toxicity_tab_ver_20.html ]
----|------------|-------
----|------------|-------
----|------------|-3--2--
-0--|-3-2-0-0-2--|-3--2--
-0--|-3-2-0-0-2--|-1--0--
-0--|-3-2-0-0-2--|-------

Verse:
-------------------------------------|--------------------------------------
-------------------------------------|--------------------------------------
----14----14----14----14----14----14-|----17----17----17----17----17----17--
-12----12----12----12----12----12----|-15----15----15----15----15----15-----
-------------------------------------|--------------------------------------
-------------------------------------|--------------------------------------

-------------------------------------|--------------------------------------
-------------------------------------|--------------------------------------
----14----14----14-15----15-14----14-|----17----19----19-17----17-15----15--
-12----12----12-------12-------12----|-15----15----15-------15-------15-----
-------------------------------------|--------------------------------------
-------------------------------------|--------------------------------------

-------------------------------------|--------------------------------
-------------------------------------|-------------------17-----------
----14----14----14----14----14----14-|----17----19----------------19--
-12----12----12----12----12----12----|-15----15----15-15----15-15-----
-------------------------------------|--------------------------------
-------------------------------------|--------------------------------

-------------------------------------|--------------------------------------
-------------------------------------|--------------------------------------
----14----14----14-15----15-14----14-|----17----19----19-17----17-15----15--
-12----12----12-------12-------12----|-15----15----15-------15-------15-----
-------------------------------------|--------------------------------------2x
-------------------------------------|--------------------------------------

Verse (bass) second half:
------------------------|------------------------
------------------------|------------------------
------------------------|------------------------
------------------------|------------------------
------------------------|------------------------2x
-0--0-0--0-0--0--0--2x--|-3--3-3--3-3--3--3--2x--

Chorus:
----|------------|-------
----|------------|-------
----|------------|-3--2--
-0--|-3-2-0-0-2--|-3--2--
-0--|-3-2-0-0-2--|-1--0--2x
-0--|-3-2-0-0-2--|-------

-----------------|-------
-----------------|-------
-----------------|-3--2--
-3-2-0-2-0-0-----|-3--2--
-3-2-0-2-0-0--4x-|-1--0--
-3-2-0-2-0-0-----|-------

----|------------|-------
----|------------|-------
----|------------|-3--2--
-0--|-3-2-0-0-2--|-3--2--
-0--|-3-2-0-0-2--|-1--0--
-0--|-3-2-0-0-2--|-------

Interlude:
------------------------------
------------------------------
------------------------------
------------------------------
------------------------------4x
-12--12-12-12-12-15p14p12-14--

Break:
---------
---------
---------
-3p2-0-0-
-3p2-0-0-8x
-3p2-0-0-

---------------------
---------------------
---------------------
-0--0-0-0-0-3p2p0-2--
-0--0-0-0-0-3p2p0-2--4x
-0--0-0-0-0-3p2p0-2--

---------
---------
---------
-3p2-0-0-
-3p2-0-0-8x
-3p2-0-0-


Chorus:
----|------------|-------
----|------------|-------
----|------------|-3--2--
-0--|-3-2-0-0-2--|-3--2--
-0--|-3-2-0-0-2--|-1--0--2x
-0--|-3-2-0-0-2--|-------

-----------------|-------
-----------------|-------
-----------------|-3--2--
-3-2-0-2-0-0-----|-3--2--
-3-2-0-2-0-0--4x-|-1--0--
-3-2-0-2-0-0-----|-------

----|------------|-------
----|------------|-------
----|------------|-3--2--
-0--|-3-2-0-0-2--|-3--2--
-0--|-3-2-0-0-2--|-1--0--
-0--|-3-2-0-0-2--|-------

Break:
---------
---------
---------
-3p2-0-0-
-3p2-0-0-8x
-3p2-0-0-

Outro:
---------------------------------------
---------------------------------------
---------------------------------------
-0--0-0-3p2p0-2b--0--0-0-0-0-3p2p0-2b--
-0--0-0-3p2p0-2b--0--0-0-0-0-3p2p0-2b--2x
-0--0-0-3p2p0-2b--0--0-0-0-0-3p2p0-2b--

Questions, corrections etc? Mail me.
This is my first tab ever, i started 2 play guitar about a month ago (4 real).
It was created using an acoustic guitar, my ears, and notepad.
Please don't be 2 hard on me...
Comments