System Of A Down - Toxicity Chords & Tabs

 

Toxicity Chords & Tabs

System Of A Down Chords & Tabs

Version: 2 Type: Tab 0 ratings
1 star 2 stars 3 stars 4 stars 5 stars
comments

Toxicity Tab

Band: System Of A Down
Song: Toxicity
Album: Toxicity
Tuning: Drop C
Tabbed By: Paul Clarke (munky515@hotmail.com)


Intro
[---------------------------------------------------------------------------------------|
[---------------------------------------------------------------------------------------|
[-----14----14----14----14----14----14----14----17----17----17----17----17----17----17--|
[--12----12----12----12----12----12----12----15----15----15----15----15----15----15-----|
[---------------------------------------------------------------------------------------|
[---------------------------------------------------------------------------------------|

[----------------------------------------------------------------------------------------]
[----------------------------------------------------------------------------------------]
[-----14----14----14----15----15----14----14-----17----19----19----17----17----15----15--]
[--12----12----12----------12----------12-----15----15----15----------15----------15-----]
[----------------------------------------------------------------------------------------]
[----------------------------------------------------------------------------------------]

Main Riff/Chorus
[----------------------------|-------------------------------------------------------------]
[----------------------------|-------------------------------------------------------------]
[--------------------3----2--|-----------------------------------------------------3----2--]
[--0----3-2-0-2-0----3----2--|-----------------------------------------------------3----2--]
[--0----3-2-0-2-0----1----0--|-----------------------------------------------------1----0--]
[--0----3-2-0-2-0------------|--3-2-0-0-0-0-3-2-0-0-0-0-3-2-0-0-0-0-3-2-0-0-0-0------------]
[ Tab from: http://www.guitartabs.cc/tabs/s/system_of_a_down/toxicity_tab_ver_2.html ]
Verse
[---------------------------------------------------------------------------------------|
[--------------------------------------------------------17--------18-------17----------|
[-----14----14----14----14----14----14----14-------17-------17--------17-------17-------|
[--12----12----12----12----12----12----12-------15----15--------15-------15-------15----|
[---------------------------------------------------------------------------------------|
[---------------------------------------------------------------------------------------|

[----------------------------------------------------------------------------------------]
[----------------------------------------------------------------------------------------]
[-----14----14----14----15----15----14----14-----17----19----19----17----17----15----15--]
[--12----12----12----------12----------12-----15----15----15----------15----------15-----]
[----------------------------------------------------------------------------------------]
[----------------------------------------------------------------------------------------]

Repeat Chorus
Repeat Verse

Bridge
[----------------------------------|---------------------------------------------------]
[----------------------------------|---------------------------------------------------]
[----------------------------------|---------------------------------------------------]
[----------------------------------|---------------------------------------------------]
[----------------------------------|---------------------------------------------------]
[--12----12-12-12-12-15-12-12-14^--|--3-2-0-0-0-0-3-2-0-0-0-0-3-2-0-0-0-0-3-2-0-0-0-0--]

Repeat Chorus

Outro
[-----------------------------------]
[-----------------------------------]
[-----------------------------------]
[-----------------------------------]
[-----------------------------------]
[--0-0-0-3-0-0-2-0-0-0-0-0-3-0-0-2--]
Comments