System Of A Down - Toxicity Chords & Tabs

 

Toxicity Chords & Tabs

System Of A Down Chords & Tabs

Version: 14 Type: Tab 0 ratings
1 star 2 stars 3 stars 4 stars 5 stars
comments

Toxicity Tab

I've seen the alot of tabs for this song and there all wrong so heres the right ones ENJOY.

Listen to the song for the tempo.

/=slide down
\=slide up
*=palm mute

Intro - 1x
D---5---5---5---5---5---5--/---8---8---8---8---8---8--------
A-3---3---3---3---3---3---/--6---6---6---6---6---6----------
F-----------------------------------------------------------
C-----------------------------------------------------------
G-----------------------------------------------------------
C-----------------------------------------------------------

D--5--5--5--6--6--5--5--/--8--8--10--10--8--8--6---6--------
A-3--3--3-----3-----3---/-6--6------6------6-----6----------
F-----------------------------------------------------------
C-----------------------------------------------------------
G-----------------------------------------------------------
C-----------------------------------------------------------

Verse1- 2x / chorus.
D-----------------------------------------------------------
A-----------------------------------------------------------
F-----------------------------------------------------------
C--0--*0-0-3-2-0*--8-8-8-8--7-7-7-7-------------------------
G--0--*0-0-3-2-0*--8-8-8-8--7-7-7-7-------------------------
C--0--*0-0-3-2-0*--8-8-8-8--7-7-7-7-------------------------
[ Tab from: http://www.guitartabs.cc/tabs/s/system_of_a_down/toxicity_tab_ver_14.html ]
Play this once then it goes back to the begining of the verse1,and u play that 2 more times.
D-----------------------------------------------------------
A-----------------------------------------------------------
F-----------------------------------------------------------
C-*0-0-0-0-0-0--3-2--0-0-0-0--3-2--0-0-0-0--3-2--0-0-0-0*---
G-*0-0-0-0-0-0--3-2--0-0-0-0--3-2--0-0-0-0--3-2--0-0-0-0*---
C-*0-0-0-0-0-0--3-2--0-0-0-0--3-2--0-0-0-0--3-2--0-0-0-0*---

"conversion softwear version 7.0" Play this 3x then go to the chorus

D---5---5---5---5---5---5--/---8---8---8---8---8---8--------
A-3---3---3---3---3---3---/--6---6---6---6---6---6---6------
F-----------------------------------------------------------
C-----------------------------------------------------------
G-----------------------------------------------------------
C-----------------------------------------------------------


D--5--5--5--6---6--5---5--/--8--8--10---10--8---8--6---6----
A-3--3--3-----3------3---/--6--6------6-------6------6------
F-----------------------------------------------------------
C-----------------------------------------------------------
G-----------------------------------------------------------
C-----------------------------------------------------------

Order of song or whatever i put down.

Intro-1x
verse1-1x
verse2-3x
chorus-1x
verse1-3x
chorus-1x


Theres a few mistakes i think so if u have any questions e-mail me at 
EVIL_ASS_666@HOTMAIL.COM. eh u have to gimmie credit cause this is my first time 
tabing out something, I learned how to read tabs when i started to play guitar 6 
years ago so if u think i dont what im doing, I AM !!!!!!
Comments