System Of A Down - Toxicity Chords & Tabs

 

Toxicity Chords & Tabs

System Of A Down Chords & Tabs

Version: 1 Type: Tab 4 ratings
1 star 2 stars 3 stars 4 stars 5 stars
comments

Toxicity Tab

   
By:Gregg Zimmer
system of a down  toxicity
drop d

intro
e|-3-3-3-3--6-6-6-6-------3-4-3-3--6-8-6-6---------------------------------------------------|
B|1-1-1-1--4-4-4-4-------1-1-1-1--4-4-4-4---------------------------------------------------|
G|---------------------------------------------------------------------------|
D|---------------------------------------------------------------------------|
A|---------------------------------------------------------------------------|
D|---------------------------------------------------------------------------|
[ Tab from: http://www.guitartabs.cc/tabs/s/system_of_a_down/toxicity_tab.html ]
heavy part
e|---------------------------------------------------------------------------|
B|---------------------------------------------------------------------------|
G|-----------------------------------one part----------------------------------------|
D|0---0-2-3-0-2---6666--5555--------0h2h3-------------------------------------------------------|
A|0---0-2-3-0-2---6666--5555--------0h2h3---keep doing that ---------------------------------------------------|
D|0---0-2-3-0-2---6666--5555--------0h2h3-------------------------------------------------------|
      palm mute

intro
heavy part
intro
heavy part

bridge
e|12-12-12-12-15-14----------------------------------------------------------------------|
B|---------------------------------------------------------------------------|
G|---------------------------------------------------------------------------|
D|--------------------0-2-3-----------------------------------------------------|
A|--------------------0-2-3-----------------------------------------------------|
D|--------------------0-2-3---0-0-0-0-3-2b---------------------------------------------|

heavy part

outro
e|---------------------------------------------------------------------------|
B|---------------------------------------------------------------------------|
G|---------------------------------------------------------------------------|
D|0h2h3---------------------------------------------------------------------------|
A|0h2h3---------------------------------------------------------------------------|
D|0h2h3-----0-0-0-0-3-2b-----------------------------------------------------------------|

Comments