System Of A Down - Toxicity Live Chords & Tabs

 

Toxicity Live Chords & Tabs

System Of A Down Chords & Tabs

Version: 2 Type: Tab 0 ratings
1 star 2 stars 3 stars 4 stars 5 stars
comments

Toxicity Live Tab

   
Daron uses a Clyde Fulltone Wah pedal at the 1st of the song but I
couldn't figure out what notes he was ittin so I didn't tab it.He also
uses the Wah pedal as a filter during the song too but it sounds fine
without it.Well here you go, Prison Live by System of a Down.

D----------------------------------------------
A----------------------------------------------
F----------------------------------------------
C---------7--7--7--7--7--7--10-10-10-10-10-10--
G-------5--5--5--5--5--5---8--8--8--8--8--8----              
C----------------------------------------------             
                                                          
----------------------------------------------            
----------------------------------------------            
----------------------------------------------              
---------7--7--8----7--------10-12--10---8----              
-------5--5--55---55---55---8--8--88---88--88-            
----------------------------------------------             
                                                            
Chorus: 

People always seem to use 88887777 as the part in this but it's not
like that if you watch the video at all.                                                
----------------------------------------------
----------------------------------------------
----------------------------------------------
------0----32020----33332222------------------     x2
------0----32020----11110000------------------
------0----32020------------------------------

----------------------------------------------
----------------------------------------------
----------------------------------------------
------332200332200332200332200----33332222----
------332200332200332200332200----11110000----
------332200332200332200332200----------------
      -----------p.m.--------- 

----------------------------------------------
----------------------------------------------
----------------------------------------------
------0----32020----33332222------------------     
------0----32020----11110000------------------
------0----32020------------------------------


Verse:

----------------------------------------------
----------------------------------------------
----------------------------------------------
---------7--7--7--7--7--7--10-10-10-10-10-10--
-------5--5--5--5--5--5---8--8--8--8--8--8----
----------------------------------------------

----------------------------------------------
----------------------------------------------
----------------------------------------------
---------7--7--8----7--------10-12--10---8----
-------5--5--55---55---55---8--8--88---88--88-
----------------------------------------------


----------------------------------------------
----------------------------------------------
------------------------------9----10----9----
---------7--7--7--7--7--7--10--10----10---10--
-------5--5--5--5--5--5---8--8---8-----8----8-
----------------------------------------------

----------------------------------------------
----------------------------------------------
----------------------------------------------
---------7--7--8----7--------10-12--10---8----
-------5--5--55---55---55---8--8--88---88--88-
----------------------------------------------


----------------------------------------------
----------------------------------------------
------------------------------9----10----9----
---------7--7--7--7--7--7--10--10----10---10--
-------5--5--5--5--5--5---8--8---8-----8----8-
----------------------------------------------
[ Tab from: http://www.guitartabs.cc/tabs/s/system_of_a_down/toxicity_live_tab_ver_2.html ]
----------------------------------------------
----------------------------------------------
----------------------------------------------
---------7--7--8----7--------10-12--10---8----
-------5--5--55---55---55---8--8--88---88--88-
----------------------------------------------

Interlude: (played with a water bottle)

----------------------------------------------
----------------------------------------------
----------------------------------------------
------12-12121212-151214----------------------    x4
------12-12121212-151214----------------------
------12-12121212-151214----------------------

----------------------------------------------
----------------------------------------------
----------------------------------------------
------332200332200332200332200----------------    x2
------332200332200332200332200----------------
------332200332200332200332200----------------
      ---------p.m.-----------  

----------------------------------------------
----------------------------------------------
----------------------------------------------
------0-0000-302------0-0000-302--------------    x2
------0-0000-302------0-0000-302--------------
------0-0000-302------0-0000-302--------------
      ---p.m.--       ---p.m.--
----------------------------------------------
----------------------------------------------
----------------------------------------------
------332200332200332200332200----------------    x2
------332200332200332200332200----------------
------332200332200332200332200----------------
      ---------p.m.-----------  

Outro: (on the CD)

----------------------------------------------
----------------------------------------------
----------------------------------------------
------332200332200332200332200----------------    x2
------332200332200332200332200----------------
------332200332200332200332200----------------
      ---------p.m.-----------  

----------------------------------------------
----------------------------------------------
----------------------------------------------
------0-0000-302------0-0000-302--------------    x2
------0-0000-302------0-0000-302--------------
------0-0000-302------0-0000-302--------------
      ---p.m.--       ---p.m.--


The Pink Floyd outro:

d-----------------------------------------------   \ 
A-----------------------------------------------    \
F-----------------------------------------------    | 
C----4----5---4-----4--------4-----5---4--------    |
G-5----5----------5--------5----5----------5-0--    |
C-----------------------------------------------    | 
                                                    | 4x together  
d-----------------------------------------------    |
A-----------------------------------------------    |
F--------0-----------0---------0-----------0----    |
C----4------2-----4----2----4-----2-----4-----2-    |
G-2------------2---------2-----------2----------    /
C-----------------------------------------------   /



d------
A------
F-5--4-
C-2--2-
G-0--0-
C------
"10,000 years ago..."

Then do this...
d-----------------
A-----------------
F---------------0-
C-4-4-4-4-4-4-4-4-
G-5-5-5-5-5-5-5-5-
C-----------------
PM . . . . . . . .

d-------------------------
A-------------------------
F--------0----------0-----
C-----4----4-----4------4-
G--5----------5-----------
C------------------------- X4
"Goodbye, Blue Sky..."

d-------------------------
A-------------------------
F--------0-----------0----
C-----4-----4-----4-----4-
G--2-----------2----------
C------------------------- X4
"Goodbye"

d-------------------------
A-------------------------
F--------0----------0-----
C-----4----4-----4------4-
G--5----------5-----------
C------------------------- X4
"Goodbye, Blue Sky..."

d-------------------------
A-------------------------
F--------0-----------0----
C-----4-----4-----4-----4-
G--2-----------2----------
C------------------------- X4

Well, there you have it.Any questions/comments email me: 
Crackerjack1987@hotmail.com

Comments