System Of A Down - Toxicity Chords & Tabs

 

Toxicity Chords & Tabs

System Of A Down Chords & Tabs

Version: 6 Type: Bass Tab

Toxicity Bass Tab

Intro1
F|--------------------------------||
C|--------------------------------||
G|------------No-Bass-------------||
C|--------------------------------||
Intro2
F|--------------------------------||
C|--------------------------------||
G|--------------------------------|| x2
C|--0--32020---8-88-7-77----------||

F|------------------------------------------------||
C|------------------------------------------------||
G|------------------------------------------------||
C|--320000320000320000320000---8-88-7-77----------||

F|--------------------------------||
C|--------------------------------||
G|--------------------------------||
C|--0--32020---8-88-7-77----------||

Verse1
F|------------------------------------------------||
C|------------------------------------------------||
G|-------------------------15--15--15--15--15--15-|| x6
C|--12-12-121212-12-1212-15--15--15--15--15--15---||

Chorus1
F|--------------------------------||
C|--------------------------------||
G|--------------------------------|| x2
C|--0--32020---8-88-7-77----------||

F|------------------------------------------------||
C|------------------------------------------------||
G|------------------------------------------------||
C|--320000320000320000320000---8-88-7-77----------||

F|--------------------------------||
C|--------------------------------||
G|--------------------------------||
C|--0--32020---8-88-7-77----------||

Verse2
F|------------------------------------------------||
C|------------------------------------------------||
G|-------------------------15--15--15--15--15--15-|| x6
C|--12-12-121212-12-1212-15--15--15--15--15--15---||

Chorus2
F|--------------------------------||
C|--------------------------------||
G|--------------------------------|| x2
C|--0--32020---8-88-7-77----------||
[ Tab from: http://www.guitartabs.cc/tabs/s/system_of_a_down/toxicity_btab_ver_6.html ]
F|------------------------------------------------||
C|------------------------------------------------||
G|------------------------------------------------||
C|--320000320000320000320000---8-88-7-77----------||

F|--------------------------------||
C|--------------------------------||
G|--------------------------------||
C|--0--32020---8-88-7-77----------||

Bridge
F|----------------||
C|----------------||
G|----No--Bass----||
C|----------------||

F|--------------------------------||
C|--------------------------------||
G|--------------------------------|| x2
C|--320000320000320000320000------||

F|--------------------------------||
C|--------------------------------||
G|--------------------------------|| x2
C|--0-00003202--0-00003202--------||

F|--------------------------------||
C|--------------------------------||
G|--------------------------------|| x2
C|--320000320000320000320000------||

Chorus3
F|--------------------------------||
C|--------------------------------||
G|--------------------------------||
C|--0----32020-----8-88-7-77-------||
         ^With Drums
F|--------------------------------||
C|--------------------------------||
G|--------------------------------||
C|--0--32020---8-88-7-77----------||

F|------------------------------------------------||
C|------------------------------------------------||
G|------------------------------------------------||
C|--320000320000320000320000---8-88-7-77----------||

F|--------------------------------||
C|--------------------------------||
G|--------------------------------||
C|--0--32020---8-88-7-77----------||

Ending
F|--------------------------------||
C|--------------------------------||
G|--------------------------------|| x2
C|--320000320000320000320000------||

F|--------------------------------||
C|--------------------------------||
G|--------------------------------|| x2
C|--0-00003202--0-00003202--------||

This song has to be one of the easiest songs to learn even for beginers!!!
This was my first song i learned and i didnt even know how to play bass!!!