System Of A Down - Toxicity Chords & Tabs

 

Toxicity Chords & Tabs

System Of A Down Chords & Tabs

Version: 4 Type: Bass Tab 0 ratings
1 star 2 stars 3 stars 4 stars 5 stars
comments

Toxicity Bass Tab

   
TABED BY:Sam Balfour

 tuning:cgcf

Intro:no bass

Chorus:

 F|--------------------------------------|
 C|--------------------------------------|x2
 G|--------------------------------------|
 C|--0---3-2-0-2-0----8--8-8-8-7--7-7-7--|
slap -                -----------------



 F|----------------------------------------------|
 C|----------------------------------------------|
 G|----------------------------------------------|
 C|-320200320200320200320200--8--8-8-8-7--7-7-7--|
slap                          -----------------

 F|--------------------------------------|
 C|--------------------------------------|
 G|--------------------------------------|
 C|--0---3-2-0-2-0----8--8-8-8-7--7-7-7--|
slap -                -----------------



Verse: 5 seconds between each
[ Tab from: http://www.guitartabs.cc/tabs/s/system_of_a_down/toxicity_btab_ver_4.html ]
 F|----------------------------------------------|
 C|----------------------------------------------|
 G|----------------------------------------------|
 C|-0-----3-----0-----3-----0-----3-----0-----3--|

 'eating seeds......'
 F|---------------------------------------|
 C|---------------------------------------|
 G|---------------------------------------|
 C|-0--000000-0-000000--3-333333-3-333333-|

Fill(before chorus(when Serj sings 'city' the 2nd time))


 F|--------|
 C|--------|
 G|--------|
 C|-3-0-3--|



Interlude(heavy part):

Part 1

 F|--------------------------|
 C|--------------------------|
 G|--------------------------|
 C|-320000320000320000320000-|

Part 2

 F|-------------------|
 C|-------------------|
 G|-------------------|x4
 C|-0-0-0-0-0-3-2-0-2-|

Part1 x1

Outro:

Part 1 x1

then:

 F|-----------------------------------|
 C|-----------------------------------|
 G|-----------------------------------|x2
 C|-0-0-0-3-2-0-2-|-0-0-0-0-0-3-2-0-2-|



Order:

    Intro(no BASS)
    Chorus
    verse
    fill
    chorus
    verse
    fill
    chorus
    Guitar solo(no BASS)
    Interlude
    chorus
    outro
Comments