System Of A Down - Toxicity Chords & Tabs

 

Toxicity Chords & Tabs

System Of A Down Chords & Tabs

Version: 3 Type: Bass Tab 0 ratings
1 star 2 stars 3 stars 4 stars 5 stars
comments

Toxicity Bass Tab

intro/verse
)-----------------------------------------------------------------------
)-7-7-7-7-7-7-7-7-9-9-9-9-9-9-9-9-7-7-7-7-8-8-7-9-9-9-9-12-12-10-10-9-9-
)5-5-5-5-5-5-5-5-7-7-7-7-7-7-7-7-5-5-5-5---5-5-7-7-7-7----7-----7----7--
)-----------------------------------------------------------------------

Build Up ("Eat'ing seeds") the timeing is screw'd reapet till he says of our city 
)------------------------------------------------
)------------------------------------------------
)------------------------------------------------
)5-3-3-3-3-3-7-5-5-5-5-5-3-1-1-1-1-1-2-0-0-0-0-0-

)------------------------------------------------
)------------------------------------------------
)------------------------------------------------
)(dont do this till he says of our city)-0-1-2-3-
[ Tab from: http://www.guitartabs.cc/tabs/s/system_of_a_down/toxicity_btab_ver_3.html ]
 (choris) riff 1 (slap the first note)
)------------------------
)------------------------
)------------------------
)0---12101----8888-7777--

 (choris) riff 2 (tap the first set of notes)
)-------------------------------
)-------------------------------
)-------------------------------
)12101121011210112101-8888-7777-

 (bridge)riff 1 (slap all)
)------------------------
)------------------------
)------------------------
)0-1-0-2-0-1-0-2-0-1-0-2-

 (bridge)riff 2 (slap all)
)--------------------
)--------------------
)--------------------
)0-0-1-1-2-0-0-1-1-2-

intro x1
choris riff 1 x2
choris riff 2 x1
choris riff 1 x1
verse x2
Build up x1
choris riff 1 x2
choris riff 2 x1
choris riff 1 x1
verse x2
Build up x1
choris riff 1 x2
choris riff 2 x1
choris riff 1 x1
(guitar solo)
Bridge riff 1 x2
Bridge riff 2 x1
Bridge riff 1 x1
choris riff 1 x2
choris riff 2 x1
choris riff 1 x1
Bridge riff 1 x1
Bridge riff 2 x1

Dont diss it, it sounds good on my sh*ty bass shavo use's a gibson so if its wrong its wrong
Comments