System Of A Down - Toxicity Chords & Tabs

 

Toxicity Chords & Tabs

System Of A Down Chords & Tabs

Version: 1 Type: Bass Tab 3 ratings
1 star 2 stars 3 stars 4 stars 5 stars
comments

Toxicity Bass Tab

   
System of a down
Toxicity
Drop C( C G C F)

Intro:

F---------------------------------------------------------------------
C---7-7-7/-8-8-8-8-8/7-7-7-7-7h8/8-8-8-8-8h9--------------------------------------------
G-5--5-5-5/6-6-6-6-6/5-5-5-5-5-5/-6-6-6-6-6-6----------------------------------------------
C---------5----------5----------5------------5----------------------------

Main Riff:
[ Tab from: http://www.guitartabs.cc/tabs/s/system_of_a_down/toxicity_btab.html ]
F----------------------------------------------------------------------
C----------------------------------------------------------------------
G----------------------------------------------------------------------
C--0------032--------8-8-8-8-8-8-8/7-7-7-7-7-----0--032--8-8-8-8-8-8/7-7-7-7-7

F------------------------------------------------------------------------
C--------------------------------------------------------------------------
G-----------------------------------------------------------------------------
C--032032032032032032032032032032---8-8-8-8-8-/7-7-7-7-7--------------------------


If you're smart figure out the rest. If youre not too bad sucker
:) 

Order:

Intro
Main RiffX2
Verse( same as Intro)( you figure out how many times)
Main Riff( same thing as what i just said about how many times)
Verse( same)
Main Riff

Figure out the solo/interlude not too much of a challenge
Comments