System Of A Down - Toxcicity Complete Chords & Tabs

 

Toxcicity Complete Chords & Tabs

System Of A Down Chords & Tabs

Version: 1 Type: Tab 9 ratings
1 star 2 stars 3 stars 4 stars 5 stars
comments

Toxcicity Complete Tab

   
this is a pretty cool song.  
you need a distortion pedal for this song.

Standard tuning (e,a,d,g,b,e)
p=pulloff
h=hammer on

INTRO:
no distortion 
let all the notes ring

E--3-3-3-3-3-3-6-6-6-6-6-6-3-3-3-4-4-3-3-6-6-8-8-6-6-4-
B-1-1-1-1-1-1-4-4-4-4-4-4-1-1-1---1---1---4---4---4---4
G------------------------------------------------------
D------------------------------------------------------
A------------------------------------------------------
E------------------------------------------------------
[ Tab from: http://www.guitartabs.cc/tabs/s/system_of_a_down/toxcicity_complete_tab.html ]
singing starts.  keep playing until you hear him say
YOU! WHY DO YOU OWN THE WORLD? HOW DO YOU OWN DISORDER?
then you play this, with distortion.

E--------------------------------------------
B--------------------------------------------
G-5----------5-----------6--6-6--6-5--5-5--5-
D-5----------5-----------6--6-6--6-5--5-5--5-
A-3(drumroll)3(drumroll)-4--4-4--4-3--3-3--3-
E--------------------------------------------

keep playing that till the chorus is over
then you go back to the intro.

once you get near the end, before he says the last couple lines,
you play this

 (strumming
  up and down)

E---------------------------------
B---------------------------------
G---------------------------------
D-----------1p0-0------------1p0-0
A-3--3-3-3-3---3---3--3-3-3-3---3-
E---------------------------------

and thats the song!
Comments