System Of A Down - This Cocaine Makes Me Feel Like Im On This Song Chords & Tabs

 

This Cocaine Makes Me Feel Like Im On This Song Chords & Tabs

System Of A Down Chords & Tabs

Version: 6 Type: Tab

This Cocaine Makes Me Feel Like Im On This Song Tab

   
Song:This Cocaine Makes Me Feel Like I'm On This Song
Artist:System of a Down
Album:Mezmerize

Tabbed by ben3296(bptrules@hotmail.com)

Guitars 1 & 2 - both distorted and both drop C# tuning(drop D tuning, then down half a step)
4/4 at about 110bpm

Intro
-----
Guitars 1 & 2
    E E Q   Q   E E  E E Q   Q   E E  E E Q   Q   E E  E E Q   Q   E E  
D#-|----------------|----------------|----------------|----------------|
A#-|----------------|----------------|----------------|----------------|
F#-|----------------|----------------|----------------|----------------|
C#-|6-6---------4-7-|6-6---------4-6-|7-7---------9-7-|6-6---------4-7-|
G#-|6-6---------4-7-|6-6---------4-6-|7-7---------9-7-|6-6---------4-7-|
C#-|6-6---------4-7-|6-6---------4-6-|7-7---------9-7-|6-6---------4-7-|


**RHY FIG 1**
    E E S S S S S S S S E E  E E S S S S S S S S E E   
D#-|------------------------|------------------------|
A#-|------------------------|------------------------|
F#-|----8-8-8-8b9r8-8-0-----|----8-8-8-8b9r8-8-0-----|
C#-|6-6---------------0-4-7-|6-6---------------0-4-6-|
G#-|6-6-----------------4-7-|6-6-----------------4-6-|
C#-|6-6-----------------4-7-|6-6-----------------4-6-|

    E E S S S S S  S S S E E  E E S S S S S S S S E E   
D#-|-------------------------|------------------------|
A#-|-------------------------|------------------------|
F#-|----9-9-9-9b10r9-9-0-----|----8-8-8-8b9r8-8-0-----|
C#-|7-7----------------0-9-7-|6-6---------------0-4-7-|
G#-|7-7------------------9-7-|6-6-----------------4-7-|
C#-|7-7------------------9-7-|6-6-----------------4-7-|

    E E S S S S S S S S E E  E E S S S S S S S S E E   
D#-|------------------------|------------------------|
A#-|------------------------|------------------------|
F#-|----8-8-8-8b9r8-8-0-----|----8-8-8-8b9r8-8-0-----|
C#-|6-6---------------0-4-7-|6-6---------------0-4-6-|
G#-|6-6-----------------4-7-|6-6-----------------4-6-|
C#-|6-6-----------------4-7-|6-6-----------------4-6-|

    E E S S S S S  S S S E E  E E S S S S S S S S E E 
D#-|-------------------------|------------------------|
A#-|-------------------------|------------------------|
F#-|----9-9-9-9b10r9-9-0-----|----8-8-8-8b9r8-8-0-----|
C#-|7-7----------------0-9-7-|6-6---------------0-4-6-|
G#-|7-7------------------9-7-|6-6-----------------4-6-|
C#-|7-7------------------9-7-|6-6-----------------4-6-|
                                      **END RHY FIG 1** 


**RHY FIG 2**
    S  S  S S  S S  S S S  S  S S  S S  S S  S  S  S S  S S  S S S  S  S S  S S  S S  
D#-|----------------------------------------|----------------------------------------|
A#-|----------------------------------------|----------------------------------------|
F#-|----------------------------------------|----------------------------------------|
C#-|10-10-9-10-9-10-9-9-10-10-9-10-9-10-9-9-|10-10-9-10-9-10-9-9-10-10-9-10-9-10-9-9-|
G#-|10-10-9-10-9-10-9-9-10-10-9-10-9-10-9-9-|10-10-9-10-9-10-9-9-10-10-9-10-9-10-9-9-|
C#-|10-10-9-10-9-10-9-9-10-10-9-10-9-10-9-9-|10-10-9-10-9-10-9-9-10-10-9-10-9-10-9-9-|

Guitar 1
    S  S  S  S  S  S  S  S  S  S  S  S  S  S  S  S   S  S  S  S  S  S  S  S  S  S  S  S  S  S  E  
D#-|------------------------------------------------|---------------------------------------------|
A#-|------------------------------------------------|---------------------------------------------|
F#-|------------------------------------------------|---------------------------------------------|
C#-|10-10-9--10-9--10-9--9--10-10-9--10-9--10-9--9--|10-10-9--10-9--10-9--9--10-10-9--10-9--10----|
G#-|10-10-9--10-9--10-9--9--10-10-9--10-9--10-9--9--|10-10-9--10-9--10-9--9--10-10-9--10-9--10----|
C#-|10-10-9--10-9--10-9--9--10-10-9--10-9--10-9--9--|10-10-9--10-9--10-9--9--10-10-9--10-9--10/13\|
Guitar 2                                            |                                             |
    S  S  S  S  S  S  S  S  S  S  S  S  S  S  S  S  |S  S  S  S  S  S  S  S  S  S  S  S  S  S  E  |
D#-|------------------------------------------------|---------------------------------------------|
A#-|------------------------------------------------|13-13\12/13\12/13\12-12/13-13\12/13\12/13----|
F#-|12-12-11-12-11-12-11-11-12-12-11-12-11-12-11-11-|12-12\11/12\11/12\11-11/12-12\11/12\11/12----|
C#-|------------------------------------------------|------------------------------------------12\|
G#-|------------------------------------------------|------------------------------------------12\|
C#-|------------------------------------------------|------------------------------------------12\|
                                                                         intentional note clash^^
                                                                                  
                                                                                 **END RHY FIG 2**


[ Tab from: http://www.guitartabs.cc/tabs/s/system_of_a_down/this_cocaine_makes_me_feel_like_im_on_this_song_tab_ver_6.html ]
Verse
-----
Guitars 1 & 2 (I don't know how he plays this, but he does, trust me, maybe play 
sixteenths not thirtyseconds)
    E  T T T T T T T T T T T T T T T T T T T T T T T T T T T T 
D#-|-----------------------------------------------------------|
A#-|-----------------------------------------------------------|
F#-|---8-8-8-8-8-8-8-8-8-8-8-8-8-8-8-8-8-8-8-8-8-8-8-8-8-8-8-8-|
C#-|6----------------------------------------------------------|
G#-|6----------------------------------------------------------|
C#-|6----------------------------------------------------------|

    T T T T T T T T T T T T T T T T T T T T T T T T T T T T T T T T 
D#-|----------------------------------------------------------------|
A#-|----------------------------------------------------------------|
F#-|8-8-8-8-8-8-8-8-8-8-8-8-8-8-8-8-8-8-8-8-8-8-8-8-8-8-8-8-8-8-8-8-|
C#-|----------------------------------------------------------------|
G#-|----------------------------------------------------------------|
C#-|----------------------------------------------------------------|

    E E E E E E E E  T T T T T T T T T T T T T T T T T T T T T T T T T T T T T T T T 
D#-|----------------|----------------------------------------------------------------|
A#-|----------------|----------------------------------------------------------------|
F#-|----------------|----------------------------------------------------------------|
C#-|7\--7\--7-7-7-7-|----------------------------------------------------------------|
G#-|7\--7\--7-7-7-7-|----------------------------------------------------------------|
C#-|7\--7\--7-7-7-7-|6-6-6-6-6-6-6-6-6-6-6-6-6-6-6-6-6-6-6-6-6-6-6-6-6-6-6-6-6-6-6-6-|
                     PM-------------------------------------------------------------|

    T T T T T T T T T T T T T T T T T T T T T T T T T T T T T T T T  E E E E E E E E 
D#-|----------------------------------------------------------------|----------------|
A#-|----------------------------------------------------------------|----------------|
F#-|----------------------------------------------------------------|----------------|
C#-|----------------------------------------------------------------|7\--7\--7-7-7-7-|
G#-|----------------------------------------------------------------|7\--7\--7-7-7-7-|
C#-|6-6-6-6-6-6-6-6-6-6-6-6-6-6-6-6-6-6-6-6-6-6-6-6-6-6-6-6-6-6-6-6-|7\--7\--7-7-7-7-|
    PM-------------------------------------------------------------|



Bridge
------
Guitars 1 & 2 w/ RHY FIG 2


Chorus
------
Guitars 1 & 2 w/RHY FIG 1


Bridge
------
Guitars 1 & 2 w/ RHY FIG 2



Verse
-----
Guitars 1 & 2
    E  T T T T T T T T T T T T T T T T T T T T T T T T T T T T 
D#-|-----------------------------------------------------------|
A#-|-----------------------------------------------------------|
F#-|---8-8-8-8-8-8-8-8-8-8-8-8-8-8-8-8-8-8-8-8-8-8-8-8-8-8-8-8-|
C#-|6----------------------------------------------------------|
G#-|6----------------------------------------------------------|
C#-|6----------------------------------------------------------|

    T T T T T T T T T T T T T T T T T T T T T T T T T T T T T T T T 
D#-|----------------------------------------------------------------|
A#-|7-7-7-7-7-7-7-7\5-5-5-5-5-5-5-5\4-4-4-4-4-4-4-4/5-5-5-5-5-5-5-5-|
F#-|8-8-8-8-8-8-8-8\6-6-6-6-6-6-6-6\5-5-5-5-5-5-5-5/6-6-6-6-6-6-6-6-|
C#-|----------------------------------------------------------------|
G#-|----------------------------------------------------------------|
C#-|----------------------------------------------------------------|

    E E E E E E E E  T T T T T T T T T T T T T T T T T T T T T T T T T T T T T T T T 
D#-|----------------|----------------------------------------------------------------|
A#-|----------------|----------------------------------------------------------------|
F#-|----------------|----------------------------------------------------------------|
C#-|7\--7\--7-7-7-7-|----------------------------------------------------------------|
G#-|7\--7\--7-7-7-7-|----------------------------------------------------------------|
C#-|7\--7\--7-7-7-7-|6-6-6-6-6-6-6-6-6-6-6-6-6-6-6-6-6-6-6-6-6-6-6-6-6-6-6-6-6-6-6-6-|
                     PM-------------------------------------------------------------|

    T T T T T T T T T T T T T T T T T T T T T T T T T T T T T T T T  E E E E E E E E 
D#-|----------------------------------------------------------------|----------------|
A#-|----------------------------------------------------------------|----------------|
F#-|----------------------------------------------------------------|----------------|
C#-|----------------------------------------------------------------|7\--7\--7-7-7-7-|
G#-|9-9-9-9-9-9-9-9-7-7-7-7-7-7-7-7-6-6-6-6-6-6-6-6-7-7-7-7-6-6-6-6-|7\--7\--7-7-7-7-|
C#-|----------------------------------------------------------------|7\--7\--7-7-7-7-|
    PM-------------------------------------------------------------|



Bridge
------
Guitars 1 & 2 w/RHY FIG 2



Outro-Chorus
------------
Guitars 1 & 2
      E E S S S S S S S S E E  E E S S S S S S S S E E   
D#-| |------------------------|------------------------|
A#-|o|------------------------|------------------------|
F#-| |----8-8-8-8b9r8-8-0-----|----8-8-8-8b9r8-8-0-----|
C#-| |6-6---------------0-4-7-|6-6---------------0-4-6-|
G#-|o|6-6-----------------4-7-|6-6-----------------4-6-|
C#-| |6-6-----------------4-7-|6-6-----------------4-6-|

    E E S S S S S  S S S E E  E E S S S S S S S S E E   
D#-|-------------------------|------------------------| |
A#-|-------------------------|------------------------|o|
F#-|----9-9-9-9b10r9-9-0-----|----8-8-8-8b9r8-8-0-----| |
C#-|7-7----------------0-9-7-|6-6---------------0-4-7-| |
G#-|7-7------------------9-7-|6-6-----------------4-7-|o|
C#-|7-7------------------9-7-|6-6-----------------4-7-| |

    E E Q H
D#-|----------|
A#-|----------|
F#-|----------|
C#-|6---------|
G#-|6---------|
C#-|6---------|



Hope this helps learn the song
Comments and rating are appreciated
Apologies for mistakes please correct me
Thankyou :)