System Of A Down - This Cocaine Makes Me Feel Like Im On This Song Chords & Tabs

 

This Cocaine Makes Me Feel Like Im On This Song Chords & Tabs

System Of A Down Chords & Tabs

Version: 4 Type: Tab 0 ratings
1 star 2 stars 3 stars 4 stars 5 stars
comments

This Cocaine Makes Me Feel Like Im On This Song Tab

   
			     System of a Down - This Cocaine Makes Me Feel Like I'm On This Song
-------------------------------------------------------------------------------
Tabbed by:Thom Wynn
Email:Hykoyim@mindspring.com

Tuning:Standard
eBGDAE


Intro
e|-----------------------------------------------------------------------------------|
B|-----------------------------------------------------------------------------------|
G|-----------------------------------------------------------------------------------|
D|-5-5---3-6-5-5---3-5-6-6---8-6-5-5-------------------------------------------------|
A|-5-5---3-6-5-5---3-3-6-6---8-6-5-5-------------------------------------------------|
E|-3-3---1-4-3-3---1-3-4-4---6-4-3-3-------------------------------------------------|


I
e|---------------------------------------------------------------------------------------------| x2
B|---------------------------------------------------------------------------------------------|
G|---------------777778p777--777778p777----------------------888889p888------------777778p777--|
D|-3-6-5-5-----------------------3-6-5-5-------------------3-5-6-6--------------------8-6-5-5--|
A|-3-6-5-5-----------------------3-6-5-5-------------------3-5-6-6--------------------8-6-5-5--|
E|-1-4-3-3-----------------------1-4-3-3-------------------1-3-4-4--------------------6-4-3-3--|


 II (Play Fast)
e|------------------------------------------------------------------------|
B|------------------------------------------------------------------------|
G|------------------------------------------------------------------------|
D|------------------------------------------------------------------------|
A|-9-9-8-9-8-9-8-8---9-9-8-9-8-7-8-8---9-9-8-9-8-9-8-8---9-9-8-9-8-9-8-8--|
E|-7-7-6-7-6-7-6-6---7-7-6-7-6-9-6-6---7-7-6-7-6-7-6-6---7-7-6-7-6-7-6-6--|

e|-----------------------------------------------------------------------------|
B|-----------------------------------------------------------------------------|
G|11-11-10-11-10-11-10-10---11-11-10-11-10-11-10-10---11-11-10-11-10-11-10-10--|
D|-----------------------------------------------------------------------------|
A|-----------------------------------------------------------------------------|
E|-----------------------------------------------------------------------------|

e|-------------------------|
B|-------------------------|
G|11-11-10-11-10-11-10-10--|
D|-------------------------|
A|-------------------------|
E|-------------------------|


III
e|--------------------------------------------------------------|
B|--------------------------------------------------------------|
G|------777777777777-(play fast)--------------------------------|
D|-5-------------------------------------------6---6---66---66--|
A|-5-------------------------------------------6---6---66---66--|
E|-3-------------------------------------------4---4---44---44--|

IV (Very Fast)
e|-----------------------------------------------------------------------------|
B|-----------------------------------------------------------------------------|
G|-----------------------------------------------------------------------------|
D|-----------------------------------------------------------------------------|
A|-----------------------------------------------------------------------------|
E|-555444---555444---555444---555444---555444----------------------------------|
[ Tab from: http://www.guitartabs.cc/tabs/s/system_of_a_down/this_cocaine_makes_me_feel_like_im_on_this_song_tab_ver_4.html ]
e|-----------------------------------------------------------------------------|
B|-----------------------------------------------------------------------------|
G|-----------------------------------------------------------------------------|
D|-----------------------------------------6---6---66---66---------------------|
A|-----------------------------------------6---6---66---66---------------------|
E|-555444---555444---555444---4---4--44---44-----------------------------------|


 II (Play Fast)
e|------------------------------------------------------------------------|
B|------------------------------------------------------------------------|
G|------------------------------------------------------------------------|
D|------------------------------------------------------------------------|
A|-9-9-8-9-8-9-8-8---9-9-8-9-8-7-8-8---9-9-8-9-8-9-8-8---9-9-8-9-8-9-8-8--|
E|-7-7-6-7-6-7-6-6---7-7-6-7-6-9-6-6---7-7-6-7-6-7-6-6---7-7-6-7-6-7-6-6--|


I
e|---------------------------------------------------------------------------------------------| x2
B|---------------------------------------------------------------------------------------------|
G|---------------777778p777--777778p777----------------------888889p888------------777778p777--|
D|-3-6-5-5-----------------------3-6-5-5-------------------3-5-6-6--------------------8-6-5-5--|
A|-3-6-5-5-----------------------3-6-5-5-------------------3-5-6-6--------------------8-6-5-5--|
E|-1-4-3-3-----------------------1-4-3-3-------------------1-3-4-4--------------------6-4-3-3--|


 II (Play Fast)
e|------------------------------------------------------------------------|
B|------------------------------------------------------------------------|
G|------------------------------------------------------------------------|
D|------------------------------------------------------------------------|
A|-9-9-8-9-8-9-8-8---9-9-8-9-8-7-8-8---9-9-8-9-8-9-8-8---9-9-8-9-8-9-8-8--|
E|-7-7-6-7-6-7-6-6---7-7-6-7-6-9-6-6---7-7-6-7-6-7-6-6---7-7-6-7-6-7-6-6--|


III (Fast)
e|-----------------------------------------------------------------------------|
B|-----------------------------------------------------------------------------|
G|------777777777777---10-------8----------------------------------------------|
D|-5-------------------------------10-9------6--6----66---66-------------------|
A|-5-------------------------------------------6---6---66---66-----------------|
E|-3-------------------------------------------4---4---44---44-----------------|


IV (Very Fast
e|------------------------------------------------------------------------------------------------------|
B|------------------------------------------------------------------------------------------------------|
G|------------------------------------------------------------------------------------------------------|
D|----------------------------------------------------------------------8-6-5-6----6---6----66---66-----|
A|------------------------------------------------------------------------------------6---6----66---66--|
E|-555444---555444---555444---555444---555444-------------------4---4---44---44-------------------------|


 II (Play Fast)
e|------------------------------------------------------------------------|
B|------------------------------------------------------------------------|
G|------------------------------------------------------------------------|
D|------------------------------------------------------------------------|
A|-9-9-8-9-8-9-8-8---9-9-8-9-8-7-8-8---9-9-8-9-8-9-8-8---9-9-8-9-8-9-8-8--|
E|-7-7-6-7-6-7-6-6---7-7-6-7-6-9-6-6---7-7-6-7-6-7-6-6---7-7-6-7-6-7-6-6--|


End
e|-----------------------------------------------------------------------------|
B|-----------------------------------------------------------------------------|
G|-----------------------------------------------------------------------------|
D|-3---6---5-------------------------------------------------------------------|
A|-3---6---5-------------------------------------------------------------------|
E|-1---4---3-------------------------------------------------------------------|

| /  slide up
| \  slide down
| h  hammer-on
| p  pull-off
| ~  vibrato
| +  harmonic
| x  Mute note

That's all. This was my first tab, so comment or criticze. Or whatever you want.
Comments