System Of A Down - This Cocaine Makes Me Feel Like Im On This Song Chords & Tabs

 

This Cocaine Makes Me Feel Like Im On This Song Chords & Tabs

System Of A Down Chords & Tabs

Version: 3 Type: Tab 0 ratings
1 star 2 stars 3 stars 4 stars 5 stars
comments

This Cocaine Makes Me Feel Like Im On This Song Tab

   
----------------------------------------------------------------------------
     This Cocaine Makes Me Feel Like I'm on This Song - System of a Down
----------------------------------------------------------------------------
Tabbed by: ole-indiekid	
Email: olem_va@hotmail.com 

My first tab, great song from soad`s album Mezmerize. 
I made it for rythm guitar, 
there are some parts thats played with two guitars



Tuning: Db Ab Db Gb Bb Eb




eb|----------------------------------------------------------------------|
Bb|----------------------------------------------------------------------|
Gb|----------------------------------------------------------------------|
Db|-6-6---4-7-6-6--4-6-7-7--9-7-6-6---4-7--------------------------------|2x
Ab|-6-6---4-7-6-6--4-6-7-7--9-7-6-6---4-7--------------------------------|
Db|-6-6---4-7-6-6--4-6-7-7--9-7-6-6---4-7--------------------------------|

eb|----------------------------------------------------------------------|
Bb|----------------------------------------------------------------------|
Gb|----------------------------------------------------------------------|
Db|-6-6---4-7-6-6--4-6-7-7--9-7-6-6---4-6--------------------------------|  
Ab|-6-6---4-7-6-6--4-6-7-7--9-7-6-6---4-6--------------------------------|
Db|-6-6---4-7-6-6--4-6-7-7--9-7-6-6---4-6--------------------------------|


eb|----------------------------------------------------------------------|
Bb|----------------------------------------------------------------------|
Gb|----------------------------------------------------------------------|
Db|-10--9-10-9-10-9------------------------------------------------------|8x
Ab|-10--9-10-9-10-9------------------------------------------------------|
Db|-10--9-10-9-10-9------------------------------------------------------|

eb|----------------------------------------------------------------------|
Bb|----------------------------------------------------------------------|
Gb|-8-8-8-8-8-8-8-8-8-8-8-8-8-8....--------------------------------------|
Db|----------------------------------------------------------------------|
Ab|----------------------------------------------------------------------|
Db|----------------------------------------------------------------------|

e|-----------------------------------------------------------------------|
B|-----------------------------------------------------------------------|
G|-----------------------------------------------------------------------|
D|-7--7--7-7-7-7------------------------7--7--7-7-7-7--------------------|
A|-7--7--7-7-7-7------------------------7--7--7-7-7-7--------------------|
E|-7--7--7-7-7-7-----6-6-6-6-6-6-6-....-7--7--7-7-7-7--------------------|

eb|----------------------------------------------------------------------|
Bb|----------------------------------------------------------------------|
Gb|----------------------------------------------------------------------|
Db|-10--9-10-9-10-9------------------------------------------------------|8x
Ab|-10--9-10-9-10-9------------------------------------------------------|
Db|-10--9-10-9-10-9------------------------------------------------------|

eb|----------------------------------------------------------------------|
Bb|----------------------------------------------------------------------|
Gb|----------------------------------------------------------------------|
Db|-6-6---4-7-6-6--4-6-7-7--9-7-6-6---4-7--------------------------------|  
Ab|-6-6---4-7-6-6--4-6-7-7--9-7-6-6---4-7--------------------------------|
Db|-6-6---4-7-6-6--4-6-7-7--9-7-6-6---4-7--------------------------------|
[ Tab from: http://www.guitartabs.cc/tabs/s/system_of_a_down/this_cocaine_makes_me_feel_like_im_on_this_song_tab_ver_3.html ]
eb|----------------------------------------------------------------------|
Bb|----------------------------------------------------------------------|
Gb|----------------------------------------------------------------------|
Db|-6-6---4-7-6-6--4-6-7-7--9-7-6-6---4-6--------------------------------|  
Ab|-6-6---4-7-6-6--4-6-7-7--9-7-6-6---4-6--------------------------------|
Db|-6-6---4-7-6-6--4-6-7-7--9-7-6-6---4-6--------------------------------|

eb|----------------------------------------------------------------------|
Bb|----------------------------------------------------------------------|
Gb|----------------------------------------------------------------------|
Db|-10--9-10-9-10-9------------------------------------------------------|7x
Ab|-10--9-10-9-10-9------------------------------------------------------|
Db|-10--9-10-9-10-9------------------------------------------------------|

eb|----------------------------------------------------------------------|
Bb|----------------------------------------------------------------------|
Gb|----------------------------------------------------------------------|
Db|-10--9-10-9-10-9---6--------------------------------------------------|  
Ab|-10--9-10-9-10-9---6--------------------------------------------------|
Db|-10--9-10-9-10-9---6--------------------------------------------------|

eb|----------------------------------------------------------------------|
Bb|----------------------------------------------------------------------|
Gb|-8-8-8-8-8-8-8-8-8-8-8-8-8-8....--------------------------------------|
Db|----------------------------------------------------------------------|
Ab|----------------------------------------------------------------------|
Db|----------------------------------------------------------------------|

eb|----------------------------------------------------------------------|
Bb|----------------------------------------------------------------------|
Gb|----------------------------------------------------------------------|
Db|-7--7--7-7-7-7--------------------------------------7--7--7-7-7-7-----|
Ab|-7--7--7-7-7-7------------------------9--7--6--4-6--7--7--7-7-7-7-----|
Db|-7--7--7-7-7-7-----6-6-6-6-6-6-6-....---------------7--7--7-7-7-7-----|

eb|----------------------------------------------------------------------|
Bb|----------------------------------------------------------------------|
Gb|----------------------------------------------------------------------|
Db|-10--9-10-9-10-9------------------------------------------------------|8x
Ab|-10--9-10-9-10-9------------------------------------------------------|
Db|-10--9-10-9-10-9------------------------------------------------------|

eb|----------------------------------------------------------------------|
Bb|----------------------------------------------------------------------|
Gb|----------------------------------------------------------------------|
Db|-6-6---4-7-6-6--4-6-7-7--9-7-6-6---4-7--------------------------------|  
Ab|-6-6---4-7-6-6--4-6-7-7--9-7-6-6---4-7--------------------------------|
Db|-6-6---4-7-6-6--4-6-7-7--9-7-6-6---4-7--------------------------------|

eb|----------------------------------------------------------------------|
Bb|----------------------------------------------------------------------|
Gb|----------------------------------------------------------------------|
Db|-6-6---4-7-6-6--4-6-7-7--9-7-6-6---4-7-6------------------------------|  
Ab|-6-6---4-7-6-6--4-6-7-7--9-7-6-6---4-7-6------------------------------|
Db|-6-6---4-7-6-6--4-6-7-7--9-7-6-6---4-7-6------------------------------|



| ( ... = keep it going! )

=========================================================================
Comments