System Of A Down - This Cocaine Makes Me Feel Like Im On This Song Chords & Tabs

 

This Cocaine Makes Me Feel Like Im On This Song Chords & Tabs

System Of A Down Chords & Tabs

Version: 2 Type: Tab 0 ratings
1 star 2 stars 3 stars 4 stars 5 stars
comments

This Cocaine Makes Me Feel Like Im On This Song Tab

----------------------------------------------------------------------------    
this cocaine makes me feel like im on this song- system of a down       
-------------------------------------------------------------------------------
Tabbed by:Chris
Email:Voodoochild1787

e|-----------------------|
B|-----------------------|
G|-55--5755--5788--8755--|
D|-55--5755--5788--8755--|
A|-55--5555--5566--6555--|
E|-----------------------|

e|-------------------------------------------------------------|
B|-------------------------------------------------------------|
G|-5755-77777b7b-5755-77777b7b-5788-88888b8b-8555-77777b7b-----| (x2)
D|-5755----------5755----------5788----------8555--------------|
A|-5555----------5555----------5566----------6755--------------|
E|-------------------------------------------------------------|
[ Tab from: http://www.guitartabs.cc/tabs/s/system_of_a_down/this_cocaine_makes_me_feel_like_im_on_this_song_tab_ver_2.html ]
e|--------------------------------------------------------------------7-|
B|--------------------------------------------------------7-----------7-|
G|-57-757575-757575-757575-757575-7-5h7-5h7-5-7-5h7-5h7-5-7-5h7-5h7-5---|
D|-57-757575-757575-757575-757575---------------------------------------|
A|-55-55---5-55---5-55---5-55---5---------------------------------------|
E|----------------------------------------------------------------------|

e|----------------------------------------------------------------|
B|----------------------------------------------------------------|
G|-5h7-5h7-5--77777777777777b^(888b^99999)~~~~~-------------------|
D|----------------------------------------------------------------|
A|----------------------------------------------------------------|
E|----------------------------------------------------------------|


thats all i have time for right now
Comments