System Of A Down - Thetawaves Chords & Tabs

 

Thetawaves Chords & Tabs

System Of A Down Chords & Tabs

Version: 1 Type: Bass Tab 0 ratings
1 star 2 stars 3 stars 4 stars 5 stars
comments

Thetawaves Bass Tab

Band- System Of A Down
Song- Thetawaves

x = mute

        Intro
F ------------------------------------------------|
C ------------------------------------------------|
G ---4-4-4-4-4-4-4-4---5-5-5-5--------------------|
C -------------------------------------5-5-5-5----| (X4) mute all these notes

        Verse
F -----------------------------------------------------------------|
C -----------------------------------------------------------------|
G -----------------------------------------------------------------|
C ----5-5-5-5-5-5-7-5-5-5-5-5-5-5-7-5---4x-4x-4x-4x-4x-4x-4x-4x----|  (X4)

       Bridge and Chorus
F -------------------------------------------------|
C -------------------------------------------------|
G -------------------------------------------------|
C ---5-5---0-0-0-0---5-5---0-0-0-0---4-4-4-4-4-4---|

F -----------------------------------------------------------------|
C -----------------------------------------------------------------|
G -----------------------------------------------------------------|
C ---5-5---0-0-0-0---5-5---0-0-0-0---4-5-4-7-5-4-------------------|
[ Tab from: http://www.guitartabs.cc/tabs/s/system_of_a_down/thetawaves_btab.html ]
F -------------------------------------------------------------|
C -------------------------------------------------------------|
G -------------------------------------------------------------|
C ---5-5---0-0-0-0---5-5---0-0-0-0---4-4-4-4-4-4---------------|

F ---------------------------------------------------------------------|
C ---------------------------------------------------------------------|
G ---------------------------------------------------------0-2-4-5-----|
C ---5-5---0-0-0-0---5-5---0-0-0-0---4-5-4-7-5-4----4-5----------------|

F -----------------------------------------|
C -----------------------------------------|
G --------------------2-4-2-5-4-2----------|
C ---4-5-4-7-5-4---------------------------|

        Then�
F ------------------------------------------|
C ------------------------------------------|
G ------------------------------------------|
C ---5555555555555555---4444444444444444----| (X4)

F --------------------------------------------------------------------|
C --------------------------------------------------------------------|
G --------------------------------------------------------------------|
C ---5x---4x---5x---4x------5-5-5-5---4-4-4-4---5-5-5-5---4-4/16\-----|


-then just listen to the song for the order and # of times you play things-
Comments