System Of A Down - The Tawaves Chords & Tabs

 

The Tawaves Chords & Tabs

System Of A Down Chords & Tabs

Version: 1 Type: Tab 0 ratings
1 star 2 stars 3 stars 4 stars 5 stars
comments

The Tawaves Tab

   
-=The Tawaves=- System of a down
===============
(C-G-C-F-A-D)
Tabs by Javier Rodríguez


A
2x:                         1x:                       1x:
pm....................................................................
1:-------------------------|-------------------------|-----------------|
2:-------------------------|-------------------------|-----------------|
3:-------------------------|-------------------------|-----------------|
4:-------------------------|-------------------------|-----------------|
5:-11-12-11-12-11-12-11-12-|-12-12-12-12-12-12-12-12-|-5-7-5-5-5-5-5-5-|
6:-11-12-11-12-11-12-11-12-|-12-12-12-12-12-12-12-12-|-5-7-5-5-5-5-5-5-|


B
2x:                         1x:                       1x:
pm..............................................................
1:-------------------------|-------------------------|------------|
2:-------------------------|-------------------------|------------|
3:-------------------------|-------------------------|------------|
4:-------------------------|-------------------------|------------|
5:-11-12-11-12-11-12-11-12-|-12-12-12-12-12-12-12-12-|-5-7-5-5-5--|
6:-11-12-11-12-11-12-11-12-|-12-12-12-12-12-12-12-12-|-5-7-5-5-5--|


C
pm..................................
1:-----------------|-----------------|----------------|
2:-----------------|-----------------|----------------|
3:-----------------|-----------------|----------------|
4:-----------------|-----------------|-------ah4--ah4-|
5:-----------------|-----------------|----------------|
6:-5-5-5-5-5-7-5-5-|-5-5-5-5-5-7-5-5-|-4--4-----------|


D
pm..................................
1:-----------------|-----------------|-------------------------|
2:-----------------|-----------------|-------------------------|
3:-----------------|-----------------|-------------------------|
4:-----------------|-----------------|---ah4---ah4---ah4---ah4-|
5:-----------------|-----------------|-------------------------|
6:-5-5-5-5-5-7-5-5-|-5-5-5-5-5-7-5-5-|-4-----4-----4-----4-----|


E
1:---------------|---------------|---------------------|---------------|---------------|
2:---------------|---------------|---------------------|---------------|---------------|
3:---------------|---------------|---------------------|---------------|---------------|
4:-5--5--0-0-0-0-|-5--5--0-0-0-0-|-4--4--4--4--4-4-4-4-|-5--5--0-0-0-0-|-5--5--0-0-0-0-|
5:-5--5--0-0-0-0-|-5--5--0-0-0-0-|-4--4--4--4--4-4-4-4-|-5--5--0-0-0-0-|-5--5--0-0-0-0-|
6:-5--5--0-0-0-0-|-5--5--0-0-0-0-|-4--4--4--4--4-4-4-4-|-5--5--0-0-0-0-|-5--5--0-0-0-0-|


F
1:--------------------|------------------|--------------------|--------------------|
2:--------------------|------------------|--------------------|--------------------|
3:--------------------|------------------|--------------------|--------------------|
4:-4--5--4--5/7--5--4-|-4--5-------------|-4--5--4--5/7--5--4-|--------------------|
5:-4--5--4--5/7--5--4-|-4--5--0--2--4--5-|-4--5--4--5/7--5--4-|-2--4--2--4/5--4--2-|
6:-4--5--4--5/7--5--4-|-4--5-------------|-4--5--4--5/7--5--4-|--------------------|

[ Tab from: http://www.guitartabs.cc/tabs/s/system_of_a_down/the_tawaves_tab.html ]
G
1:--------------------|
2:--------------------|
3:--------------------|
4:-4--5--4--5/7--5--4-|
5:-4--5--4--5/7--5--4-|
6:-4--5--4--5/7--5--4-|


Solo
1:-7-7-7-7-7-7-7-7-|-9-9-9-9-10-10-10-10-|-9-9-9-9-9-9-9-9-|-----------------|
2:-----------------|---------------------|-----------------|-8-8-8-8-7-7-7-7-|
3:-----------------|---------------------|-----------------|-----------------|
4:-----------------|---------------------|-----------------|-----------------|
5:-----------------|---------------------|-----------------|-----------------|
6:-----------------|---------------------|-----------------|-----------------|

1:-7-7-7-7-7-7-7-7-|-9-9-9-9-10-10-10-10-|-9-9-9-9-9-9-9-9/|-14-14-14-14-14-14-14-14-|
2:-----------------|---------------------|-----------------|-------------------------|
3:-----------------|---------------------|-----------------|-------------------------|
4:-----------------|---------------------|-----------------|-------------------------|
5:-----------------|---------------------|-----------------|-------------------------|
6:-----------------|---------------------|-----------------|-------------------------|

1:-7-7-7-7-7-7-7-7-|-9-9-9-9-10-10-10-10-|-9-9-9-9-9-9-9-9-|-----------------|
2:-----------------|---------------------|-----------------|-8-8-8-8-7-7-7-7-|
3:-----------------|---------------------|-----------------|-----------------|
4:-----------------|---------------------|-----------------|-----------------|
5:-----------------|---------------------|-----------------|-----------------|
6:-----------------|---------------------|-----------------|-----------------|

1:-7-7-7-7-7-7-7-7-|-9-9-9-9-10-10-10-10-|-9-9-9-9-9-9-9-9/|-14-14-14-14-14-14-14-14-|
2:-----------------|---------------------|-----------------|-------------------------|
3:-----------------|---------------------|-----------------|-------------------------|
4:-----------------|---------------------|-----------------|-------------------------|
5:-----------------|---------------------|-----------------|-------------------------|
6:-----------------|---------------------|-----------------|-------------------------|

1:-15--14-12-14--12-10-12--10-9-10--9-|-12--10-9-10--9-7-6-7-9--9--9--9-99/7--7--7--7-|
2:------------------------------------|-----------------------------------------------|
3:------------------------------------|-----------------------------------------------|
4:------------------------------------|-----------------------------------------------|
5:------------------------------------|-----------------------------------------------|
6:------------------------------------|-----------------------------------------------|

1:-6--6--6--6--7--7--7--7--66666666-66666666-|
2:-------------------------------------------|
3:-------------------------------------------|
4:-------------------------------------------|
5:-------------------------------------------|
6:-------------------------------------------|


ORDER:
=====

A 3x
B
C, D, C, D
E
F 2x
C
C, D, C, D
E
G
E
F 2x
Solo
E
G
E
F 2x
Comments