System Of A Down - The Metro Chords & Tabs

 

The Metro Chords & Tabs

System Of A Down Chords & Tabs

Version: 4 Type: Tab 0 ratings
1 star 2 stars 3 stars 4 stars 5 stars
comments

The Metro Tab

   
Author/Artist: System of a Down
Title: The Metro
Album: Dracula 2000 Soundtrack
Transcribed by: Eric
Email: eric_kurtz@hotmail.com

Aight. I've seen a few tabs on this, most of them are partially wrong to totally wrong.
This one is totally correct, as i read it in an interview with Daron.
He didn't disclose the whole song, but it wasnt that hard to figure out the rest
This song is in STANDARD TUNING!!! (EADGBe)


Drum and bass intro, then the pause, then this starts
Part A
E]-12--12--12--12-12--12--12-12--12------------------------------|
B]---------------------------------------------------------------|
G]---------------------------------------------------------------|
D]---------------------------------------------------------------|
A]---------------------------------------------------------------|
E]---------------------------------------------------------------|
		You do that part 4 times, then go into this


Part B
E]---------------------------------------------------------------|
B]-13--8--9------------------------------------------------------|
G]-----------10--12--8--10--8------------------------------------|
D]-----------------------------10--------------------------------|
A]---------------------------------------------------------------|
E]---------------------------------------------------------------|

Part C
E]---------------------------------------------------------------|
B]-13--8--9--8---------------------------------------------------|
G]--------------10--12--8--10--8---------------------------------|
D]--------------------------------10-----------------------------|
A]---------------------------------------------------------------|
E]---------------------------------------------------------------|
Part C is the same as B, just mix another note in there (13, 8, 9, 8)

The drums and bass continue on through the singing...then the chorus comes in

Part D (chorus)
E]------------|----------------|-----------|----------------|----|
B]------------|----------------|-----------|----------------|----|
G]------------|----------------|-----------|----------------|----|
D]--8-8-8-8-8-|-10-10-10-10-10-|-6-6-6-6-6-|-13-13-13-13-13-|----|
A]--8-8-8-8-8-|-10-10-10-10-10-|-6-6-6-6-6-|-13-13-13-13-13-|----|
E]--6-6-6-6-6-|--8--8--8--8--8-|-4-4-4-4-4-|-11-11-11-11-11-|----|

Part E (second part of chorus)
E]------------|----------------|------------------|--------------|
B]------------|----------------|------------------|--------------|
G]------------|----------------|------------------|--------------|
D]--8-8-8-8-8-|-10-10-10-10-10-|-6--6--6-6--6--6--|--------------|
A]--8-8-8-8-8-|-10-10-10-10-10-|-6--6--6-6--6--6--|--------------|
E]--6-6-6-6-6-|--8--8--8--8--8-|-4--4--4-4--4--4--|--------------|
				 ^Pound out single notes^
Then repeat parts D and E

Then after the little bass part, you just do this every second beat.
Part F
E]---------------------------------------------------------------|
B]--13--13--13--13--13--13--13--13--13--13--13--13--13--13--13---|
G]---------------------------------------------------------------|
D]---------------------------------------------------------------|
A]---------------------------------------------------------------|
E]---------------------------------------------------------------|

Chorus again...
Part D (chorus)
E]------------|----------------|-----------|----------------|----|
B]------------|----------------|-----------|----------------|----|
G]------------|----------------|-----------|----------------|----|
D]--8-8-8-8-8-|-10-10-10-10-10-|-6-6-6-6-6-|-13-13-13-13-13-|----|
A]--8-8-8-8-8-|-10-10-10-10-10-|-6-6-6-6-6-|-13-13-13-13-13-|----|
E]--6-6-6-6-6-|--8--8--8--8--8-|-4-4-4-4-4-|-11-11-11-11-11-|----|
[ Tab from: http://www.guitartabs.cc/tabs/s/system_of_a_down/the_metro_tab_ver_4.html ]
Part E (second part of chorus)
E]------------|----------------|------------------|--------------|
B]------------|----------------|------------------|--------------|
G]------------|----------------|------------------|--------------|
D]--8-8-8-8-8-|-10-10-10-10-10-|-6--6--6-6--6--6--|--------------|
A]--8-8-8-8-8-|-10-10-10-10-10-|-6--6--6-6--6--6--|--------------|
E]--6-6-6-6-6-|--8--8--8--8--8-|-4--4--4-4--4--4--|--------------|
	Do Twice		 ^Pound out single notes^

This time after the chrous, just keep pounding out the last beat.
Part G
E]---------------------------------------------------------------|
B]---------------------------------------------------------------|
G]---------------------------------------------------------------|
D]--6--6--6--6--6--6--6--6--6--6--6--6--6--6--6--6---------------|
A]--6--6--6--6--6--6--6--6--6--6--6--6--6--6--6--6---------------|
E]--4--4--4--4--4--4--4--4--4--4--4--4--4--4--4--4---------------|


Part H (similar to Part B, just played higher the second time)
E]--------------------------------|-------------------------------|
B]-13--8--9-----------------------|--13--8--15--------------------|
G]-----------10--12--8--10--8-----|-------------16--18--14--16----|
D]-----------------------------10-|-------------------------------|
A]--------------------------------|-------------------------------|
E]--------------------------------|-------------------------------|

Part I (similar to part H, but let the notes ring)
E]--------------------------------|-------------------------------|
B]-13--8--9-----------------------|--13--8--15--------------------|
G]-----------10--12--8--10--8-----|-------------16--18--14--16----|
D]-----------------------------10-|-------------------------------|
A]--------------------------------|-------------------------------|
E]--------------------------------|-------------------------------|

Chorus again...
Part D (chorus)
E]------------|----------------|-----------|----------------|----|
B]------------|----------------|-----------|----------------|----|
G]------------|----------------|-----------|----------------|----|
D]--8-8-8-8-8-|-10-10-10-10-10-|-6-6-6-6-6-|-13-13-13-13-13-|----|
A]--8-8-8-8-8-|-10-10-10-10-10-|-6-6-6-6-6-|-13-13-13-13-13-|----|
E]--6-6-6-6-6-|--8--8--8--8--8-|-4-4-4-4-4-|-11-11-11-11-11-|----|

Part E (second part of chorus)
E]------------|----------------|------------------|--------------|
B]------------|----------------|------------------|--------------|
G]------------|----------------|------------------|--------------|
D]--8-8-8-8-8-|-10-10-10-10-10-|-6--6--6-6--6--6--|--------------|
A]--8-8-8-8-8-|-10-10-10-10-10-|-6--6--6-6--6--6--|--------------|
E]--6-6-6-6-6-|--8--8--8--8--8-|-4--4--4-4--4--4--|--------------|
	Do Twice		 ^Pound out single notes^

Part J (Same as chorus, but PALM MUTE EVERYTHING until the end)
    PM.....................................................
E]------------|----------------|-----------|----------------|----|
B]------------|----------------|-----------|----------------|----|
G]------------|----------------|-----------|----------------|----|
D]--8-8-8-8-8-|-10-10-10-10-10-|-6-6-6-6-6-|-13-13-13-13-13-|----|
A]--8-8-8-8-8-|-10-10-10-10-10-|-6-6-6-6-6-|-13-13-13-13-13-|----|
E]--6-6-6-6-6-|--8--8--8--8--8-|-4-4-4-4-4-|-11-11-11-11-11-|----|

    PM..........................................
E]------------|----------------|------------------|--------------|
B]------------|----------------|------------------|--------------|
G]------------|----------------|------------------|--------------|
D]--8-8-8-8-8-|-10-10-10-10-10-|-6--6--6-6--6--6--|--------------|
A]--8-8-8-8-8-|-10-10-10-10-10-|-6--6--6-6--6--6--|--------------|
E]--6-6-6-6-6-|--8--8--8--8--8-|-4--4--4-4--4--4--|--------------|


Aight, pretty simple, eh? Pretty much just repeats alot of parts in a different way.
Any questions of corrections or anythin then send em to me
Comments