System Of A Down - The Metro Chords & Tabs

 

The Metro Chords & Tabs

System Of A Down Chords & Tabs

Version: 1 Type: Bass Tab 0 ratings
1 star 2 stars 3 stars 4 stars 5 stars
comments

The Metro Bass Tab

          Band: System of a Down
          Song: Metro
          Album: Dracula 2000 Soundtrack
          Tabbed by: The Flaming Biscuit
          Tuning: CGCF
          
          Intro + verses + outro(faster) 
          F --------------------|-------------------------------------------------------- 
          C --------------------|-------------------------------------------------------- 
          G ----------3---------|---------3---------------------------------------------- 
          C --0-7-0-3---5-5-8-7-|-0-7-0-3---5-5-8-7-------------------------------------- 
          
          
          Chorus 
          F ----------------------------------------------------------------------------- 
          C ----------------------------------------------------------------------------- 
          G 3-333333-5-555555----------8-888888-3-333333-5-555555------------------------ 
          C ------------------8-888888----------------------------8-8-8-8-888------------ 
          
          Bridge 
          F ------------------------------------------------------------------------------
          C ------------------------------------------------------------------------------
          G ------------------------------------------------------------------------------
          C -8-8-8-8-888-8-8-8-8-888------------------------------------------------------
                              
          
          
          Solo part 
          F ----------------------------------------------------------------------------- 
          C ----------------------------------------------------------------------------- 
          G ----------------------------------------------------------------------------- 
          C 0-7-0-7-8-0-8-7-0-7-0-7-8----------------------------------------------------
[ Tab from: http://www.guitartabs.cc/tabs/s/system_of_a_down/the_metro_btab.html ]
Comments