System Of A Down - Temper Chords & Tabs

 

Temper Chords & Tabs

System Of A Down Chords & Tabs

Version: 3 Type: Tab 1 rating
1 star 2 stars 3 stars 4 stars 5 stars
comments

Temper Tab

YES!! THe better version and easier to play version for the rare demo song off systems tape. IT's called 
This is the most correct tab on the whole web.
This song it called Temper tabbed by me. This is a pretty hard song to play. It?s off of system of a 
demo tape. System plays in Drop C tuning. Hope you like this song.
 It?s really good and should be on System of a Down?s next album.

/= to slide up
\= to slide down


introduction
D--------------------------------------------------------------------------------|
A--------------------------------------------------------------------------------|
F------------------7-5-7-5-------5-5-7-5?7-10?8-12-10-14?15-14-15-14-7-7-8\5/8-7-|
C-8-8-7-5-5-7-7-----------8-8----------------------------------------------------|
G--------------------------------------------------------------------------------|
C--------------------------------------------------------------------------------|

D-----------------------------------------------------------------|
A-----------------------------------------------------------------|
F----------8--7---------------------------------------------------|
C-------10---7--------play the whole thing 8 times----------------|
G-----------------------------------------------------------------|
C-----------------------------------------------------------------|

Chorus

D-----------------------------------------------------------------------|
A-----------------------------------------------------------------------|
F-----------------------------------------------------------------------|
C-0---1----3----5----3----1---------------------------------------------|
G-0---1----3----5----3----1---------about 6 times-----------------------|
C-0---1----3----5----3----1---------------------------------------------|


Verse
D------------------------------|
A------------------------------|
F------------------------------|
C------------------------------|
G------------------------------|
C---0---5---0---5--3--1--1--3--|you figure out how many times they play it
Chorus
[ Tab from: http://www.guitartabs.cc/tabs/s/system_of_a_down/temper_tab_ver_3.html ]
D------------------------------------------------------------------------------------|
A------------------------------------------------------------------------------------|
F------------------------------------------------------------------------------------|
C-0---1----3----5----3----1----------------------------------------------------------|
G-0---1----3----5----3----1---------about 6 times------------------------------------|
C-0---1----3----5----3----1----------------------------------------------------------|

guitar solo

D-----------------------------------------------------------------------------------------|
A-----------------------------------------------------------------------------------------|
F-----------------------------------------------------------------------------------------|
C-------8-8-10-12?10-8?10-8?7-8-7-5-5-7-8?8-9/11-7-12-13-15-13-12-10-^12-8-10-12-10-8-10--|
G-----------------------------------------------------------------------------------------|
C-----------------------------------------------------------------------------------------|

D--------------------------------------------------------------------------------|
A--------------------------------------------------------------------------------|
F--------------------------------------------------------------------------------|
C---16--16-16--16--16--16-16--16--16--16---16---16-16--16---19-------------------|
G---17--16-17--16--17--16-17--16--16--17---17-------17--16-----------------------|
C--------------------------------------------------------------------------------|

D------------------------------------------------------------------------------------------|
A------------------------------------------------------------------------------------------|
F---------10-11-10-11-10-11----------------------------------------------------------------|
C--11-12----------------------    repeat about 6 times-------------------------------------|
G----------------------------- ------------------------------------------------------------|
C------------------------------------------------------------------------------------------|

Then the song is over. I tabbed this. Matter of fact, I?m good. Everythings taken RULES!!!!!!! Go me Go me!!
"A friend with weed is a friend indeed" - Shawn lu
Comments