System Of A Down - Temper Chords & Tabs

 

Temper Chords & Tabs

System Of A Down Chords & Tabs

Version: 2 Type: Tab 0 ratings
1 star 2 stars 3 stars 4 stars 5 stars
comments

Temper Tab

System Of A Down
"Temper"
Tab by Emiliano "RaTa" Dimmer
Tuning: Droip In C (CGCFAD)

Intro:

|-------------------------------------------1----
|-----------------3-3-1-----1-----1---3---3---4--
|--3-3-2-0...--0-2-0-------3-3---3-3---3---3-----
|------------------------------------------------
|------------------------------------------------
|------------------------------------------------

|-3-1--56-5-------------|-----------
|-----------3--3-4-4-3--|--4-3---x5-  Listen the song to play this  
|-----------------------|-----------  part.
|-----------------------|-----------
|-----------------------|-----------
|-----------------------|-----------

Heavy Part:

|-----------------------------------
|-----------------------------------
|-----------------------------------
|----------------------------------- Repeat this part as nesesary
|--2-2-2-2-3-5-2-2-2-2-3-5----------
|--2-2-2-2-3-5-2-2-2-2-3-5----------
[ Tab from: http://www.guitartabs.cc/tabs/s/system_of_a_down/temper_tab_ver_2.html ]
Solo:
|---------------------------------------------
|------1-3-1---1----------------------1-----3-
|--3-3-------3---3-2--2--0-0...-0-2-3---2-----
|-----------------------------------------3---
|---------------------------------------------
|---------------------------------------------

|------1--------------------------------------
|--3-4---4-3-1-3-4-3----1-3-1---1--4-3--------
|---------------------3-------3---------------
|---------------------------------------------
|---------------------------------------------
|---------------------------------------------

Operatic:

|----------    |------2-3-2------------------------
|-3-3-3-3-4 X4 |--3-4-------3-4-3------------------
|----------    |-----------------------------------
|----------    |-----------------------------------
|----------    |-----------------------------------
|----------    |-----------------------------------
\____  ____/    \_______  _______/
     \/                 \/
Palm Muted          Very Fast


Emiliano "RaTa" Dimmer, Argentina.
Comments