System Of A Down - Tawaves Chords & Tabs

 

Tawaves Chords & Tabs

System Of A Down Chords & Tabs

Version: 1 Type: Bass Tab 0 ratings
1 star 2 stars 3 stars 4 stars 5 stars
comments

Tawaves Bass Tab

   
-=The Tawaves=- System of a down
tabs by Javier Rodríguez

A:
F|-------------------------|-------------------------|-------------------------|-----------------|
C|-------------------------|-------------------------|-------------------------|-----------------|
G|-------------------------|-------------------------|-------------------------|-----------------|
C|-11-12-11-12-11-12-11-12-|-11-12-11-12-11-12-11-12-|-12-12-12-12-12-12-12-12-|-5-7-5-5-5-5-5-5-|

B:
F|-----------------|-----------------|--------------------|
C|-----------------|-----------------|--------------------|
G|-----------------|-----------------|--------------------|
C|-5-5-5-5-5-7-5-5-|-5-5-5-5-5-7-5-5-|-4-4--4-4--4-4--4-4-|

C:
F|---------------|---------------|---------------------|---------------|---------------|
C|---------------|---------------|---------------------|---------------|---------------|
G|---------------|---------------|---------------------|---------------|---------------|
C|-5--5--0-0-0-0-|-5--5--0-0-0-0-|-4--4--4--4--4-4-4-4-|-5--5--0-0-0-0-|-5--5--0-0-0-0-|
[ Tab from: http://www.guitartabs.cc/tabs/s/system_of_a_down/tawaves_btab.html ]
D:
F|--------------------|------------------|--------------------|--------------------|
C|--------------------|------------------|--------------------|--------------------|
G|--------------------|-------0--2--4--5-|--------------------|-2--4--2--4/5--4--2-|
C|-4--5--4--5/7--5--4-|-4--5-------------|-4--5--4--5/7--5--7-|--------------------|

E:
F|--------------------|
C|--------------------|
G|--------------------|
C|-4--5--4--5/7--5--4-|

F:
F|---------------------------------------------------------|
C|---------------------------------------------------------|
G|---------------------------------------------------------|
C|-4-4-4-4-4-4-4-4-4-4-4-4-4-5-5-5-5-5-5-5-5-5-5-5-5-5-5-5-|

G:
F|---------|
C|---------|
G|---------|
C|-5-------|

H:
F|---------------|
C|---------------|
G|---------------|
C|-4~~~----5~~~~-|

Order:
=====

A: X4
B: X4
C:
D: X2
B: X4
C:
E:
C:
D:
F: X8
G: X4
H: X2
C:
E:
C:
D: X2
Comments