System Of A Down - Suite Pee Chords & Tabs

 

Suite Pee Chords & Tabs

System Of A Down Chords & Tabs

Version: 8 Type: Tab 0 ratings
1 star 2 stars 3 stars 4 stars 5 stars
comments

Suite Pee Tab

Band:System of a Down
Song:Suite-Pee
Tabber:SoadFreak II
Location:lost in the dimentions of soad

For a long time ive been wondering how to play the intro of suite-pee and i never
figured it out till today,3/16/05,and the only reason is because i went to go see
danzig the day before and that guitarist,damn all he used were harmonics.so i payed
real close attention to see how he did it and i found out how to do suite pee.ill
show u how to do it with the harmonics.its hard to do but ill show u.


if uve ever seen system of a down play live he (daron) slids down the neck and the
sound sounds like its going up even though hes going down the neck.the way he plays
it is he keeps his finger on the string but doesnt push it down.get ur guitar and try
this.put ur finger on 5 on the g string but make sure u have it on cgcfad tuning so
its gonna be the f string.put ur finger on 5 and dont push it down.do it right at the
corner of five real close (well not that close) to the little metal bar or fret.hit the
string and if u get this sound that sound different,like a really high pitch sound
u got it.but make sure u dont even push down the string at all,just lightly
keep ur finger on it.if u got this let get on to the tab.



intro:CGcFAD tuning
in order to do the intro to sound real good u have to read the top part..

lightly put ur finger on the string and do the slids.
D|--------------------------------------------------------------------------|
A|--------------------------------------------------------------------------|
F|--5/and thats slid down the neck to about two/2\5:that means slid back to 5
c|--------------------------------------------------------------------------|
G|--------------------------------------------------------------------------|
C|--------------------------------------------------------------------------|
pick these riffs a lot and really fast.dont just hit the note and slide to the
next.slide while your still picking it.the numbers are just there so u know what
numbers to stop at.start at five then pick it a bunch of times till u get to two
and then go to five again but dont stop hitting the notes.


D|--------------------------------------------------------------------------|
A|--------------------------------------------------------------------------|
F|--------------------------------------------------------------------------|
c|--5/2\5-------------------------------------------------------------------|
G|--------------------------------------------------------------------------|
C|--------------------------------------------------------------------------|

D|--------------------------------------------------------------------------|
A|--------------------------------------------------------------------------|
F|--------------------------------------------------------------------------|
c|--------------------------------------------------------------------------|
G|--5/2\5-------------------------------------------------------------------|
C|--------------------------------------------------------------------------|

D|--------------------------------------------------------------------------|
A|--------------------------------------------------------------------------|
F|--------------------------------------------------------------------------|
c|--5/2\5-------------------------------------------------------------------|
G|--------------------------------------------------------------------------|
C|--------------------------------------------------------------------------|

D|--------------------------------------------------------------------------|
A|--------------------------------------------------------------------------|
F|--5/2\5-------------------------------------------------------------------|
c|--------------------------------------------------------------------------|
g|--------------------------------------------------------------------------|
c|--------------------------------------------------------------------------|

D|--------------------------------------------------------------------------|
A|--------------------------------------------------------------------------|
F|--------------------------------------------------------------------------|
c|--5/2\5-------------------------------------------------------------------|
G|--------------------------------------------------------------------------|
C|--------------------------------------------------------------------------|

D|--------------------------------------------------------------------------|
A|--------------------------------------------------------------------------|
F|--------------------------------------------------------------------------|
c|--------------------------------------------------------------------------|
G|--5/2\5-------------------------------------------------------------------|
C|--------------------------------------------------------------------------|


D|--------------------------------------------------------------------------|
A|--------------------------------------------------------------------------|
F|--------------------------------------------------------------------------|
c|--5/2\5-------------------------------------------------------------------|
G|--------------------------------------------------------------------------|
C|--------------------------------------------------------------------------|

D|--------------------------------------------------------------------------|
A|--------------------------------------------------------------------------|
F|----------------------------------------------------------7---------------|
c|-0-0-0-0-1-0-1---0-0-0-0-1-0-1---0-0-0-0-1-0-1--0-0-1-0-1-5---------------|
g|-0-0-0-0-1-0-1---0-0-0-0-1-0-1---0-0-0-0-1-0-1--0-0-1-0-1-5---------------|
c|-0-0-0-0-1-0-1---0-0-0-0-1-0-1---0-0-0-0-1-0-1--0-0-1-0-1-----------------|

do that 2x then      
[ Tab from: http://www.guitartabs.cc/tabs/s/system_of_a_down/suite_pee_tab_ver_8.html ]
D|--------------------------------------------------------------------------|
A|--------------------------------------------------------------------------|
F|------------------------------------------19(sometimes he bends this note)|
c|--------------------------------------------------------------------------|
G|-17-17-17-17-18-17-18----17-17-17-17-18-17--------------------------------|
C|--------------------------------------------------------------------------|
about 4x

D|--------------------------------------------------------------------------|
A|--------------------------------------------------------------------------|
F|----------------------------------------------------------7---------------|
c|-0-0-0-0-1-0-1---0-0-0-0-1-0-1---0-0-0-0-1-0-1--0-0-1-0-1-5---------------|
g|-0-0-0-0-1-0-1---0-0-0-0-1-0-1---0-0-0-0-1-0-1--0-0-1-0-1-5---------------|
c|-0-0-0-0-1-0-1---0-0-0-0-1-0-1---0-0-0-0-1-0-1--0-0-1-0-1-----------------|
2 times

D|--------------------------------------------------------------------------|
A|--------------------------------------------------------------------------|
F|------------------------------------------19(sometimes he bends this note)|
c|--------------------------------------------------------------------------|
G|-17-17-17-17-18-17-18----17-17-17-17-18-17--------------------------------|
C|---------------------\----------------------------------------------------|
about 4x

D|--------------------------------------------------------------------------|
A|--------------------------------------------------------------------------|
F|----------------------------------------------------------7---------------|
c|-0-0-0-0-1-0-1---0-0-0-0-1-0-1---0-0-0-0-1-0-1--0-0-1-0-1-5---------------|
g|-0-0-0-0-1-0-1---0-0-0-0-1-0-1---0-0-0-0-1-0-1--0-0-1-0-1-5---------------|
c|-0-0-0-0-1-0-1---0-0-0-0-1-0-1---0-0-0-0-1-0-1--0-0-1-0-1-----------------|
2 times

then the bass riff goes like this:

F|--------------------------------------------------------------------------|
C|--------------------------------------------------------------------------|
G|--------------------------------------------------------------------------|
C|--0-1-0-0---5-4-----------------------------------------------------------|

D|--------------------------------------------------------------------------|
A|--------------------------------------------------------------------------|
F|--------------------------------------------------------------------------|
c|-0-1-0--0---5-4-----------------------------------------------------------|
G|-0-1-0--0---5-4-----------------------------------------------------------|
C|-0-1-0--0---5-4-----------------------------------------------------------|
about 4 x,but the last time u do it the 5s and 4s have to be palm muted


D|--------------------------------------------------------------------------|
A|--------------------------------------------------------------------------|
F|--------------------------------------------------------------------------|
c|-0-1-0--0---5-4-----------------------------------------------------------|
G|-0-1-0--0---5-4-----------------------------------------------------------|
C|-0-1-0--0---5-4-----------------------------------------------------------|
four time palm muted then:

D|--------------------------------------------------------------------------|
A|--------------------------------------------------------------------------|
F|--------------------------------------------------------------------------|
G|--------------------------------------------------------------------------|
c|---5-4^-------------------------------------------------------------------|
G|--------------------------------------------------------------------------|
C|--------------------------------------------------------------------------|
With some harmonics

D|--------------------------------------------------------------------------|
A|--------------------------------------------------------------------------|
F|--------------------------------------------------------------------------|
c|-0-1-0--0---5-4-----------------------------------------------------------|
G|-0-1-0--0---5-4-----------------------------------------------------------|
C|-0-1-0--0---5-4-----------------------------------------------------------|
three times palm muted then:

*means palm mute,u will find out why im doing it now


D|--------------------------------------------------------------------------|
A|--------------------------------------------------------------------------|
F|--------------------------------------------------------------------------|
c|-0-1-0--0---5-4-4-4-4-4-4-------------------------------------------------|
G|-0-1-0--0---5-4-4-4-4-4-4-------------------------------------------------|
C|-0-1-0--0---5-4-4-4-4-4-4-------------------------------------------------|
   * * *  *   *   

D|--------------------------------------------------------------------------|
A|--------------------------------------------------------------------------|
F|--------------------------------------------------------------------------|
c|-0-1-0--0---5-4-----------------------------------------------------------|
G|-0-1-0--0---5-4-----------------------------------------------------------|
C|-0-1-0--0---5-4-----------------------------------------------------------|
8 times then

D|--------------------------------------------------------------------------|
A|--------------------------------------------------------------------------|
F|----------------------------------------------------------7---------------|
c|-0-0-0-0-1-0-1---0-0-0-0-1-0-1---0-0-0-0-1-0-1--0-0-1-0-1-5---------------|
g|-0-0-0-0-1-0-1---0-0-0-0-1-0-1---0-0-0-0-1-0-1--0-0-1-0-1-5---------------|
c|-0-0-0-0-1-0-1---0-0-0-0-1-0-1---0-0-0-0-1-0-1--0-0-1-0-1-----------------|
2 times

D|--------------------------------------------------------------------------|
A|--------------------------------------------------------------------------|
F|----------------------19--------------------------------------------------|
C|--------------------------------------------------------------------------|
G|--17-17-17-17-18-17-------------------------------------------------------|
C|--------------------------------------------------------------------------|
8 times then songs over

so what do you guys think about my second soad tab.im gonna tab all there song
even the unrealeased songs.i already did spiders and suite pee now i go to Know.
please rate me.
Comments