System Of A Down - Suite Pee Chords & Tabs

 

Suite Pee Chords & Tabs

System Of A Down Chords & Tabs

Version: 7 Type: Tab 0 ratings
1 star 2 stars 3 stars 4 stars 5 stars
comments

Suite Pee Tab

-----------------------------------------------------------------------------
			 Suite Pee - System of a Down
-----------------------------------------------------------------------------
Tabbed by: Charles
Email:Kenny24101@aol.com

Tuning:Drop B, Drop D

"10 times
slide to one then back up to 3 or so (listen to the song)
-----------------------------------------------------------------------------|
-----------------------------------------------------------------------------|
--9/-------------------------------------------------------------------------|
--------9/----------9/-------------------------------------------------------|
--------------9/-------------------------------------------------------------|
-----------------------------------------------------------------------------|
[ Tab from: http://www.guitartabs.cc/tabs/s/system_of_a_down/suite_pee_tab_ver_7.html ]
------------------     --------------------------------------|
------------------     --------------------------------------|
------------------     --------------------------------------|
--0-0-0-0-1-0-1---3 x  --0-0-0-0-1-0-/12---------------------|
--0-0-0-0-1-0-1---     --0-0-0-0-1-0-/12---------------------|
--0-0-0-0-1-0-1---     --0-0-0-0-1-0-/12---------------------|


-------------------     -----------11-10-11------------------|
-------------------     -------------------------------------|
--7-7-7-7--8-7-8---     --7-7-7-7----------------------------|
-------------------3 x  -------------------------------------|
-------------------     -------------------------------------|
-------------------     -------------------------------------|


-------------------------------------------------------------|
-------------------------------------------------------------|
-------------------------------------------------------------|
--0-1-0---0--5-4---------------------------------------------|
--0-1-0---0--5-4-let ring------------------------------------|
--0-1-0---0--5-4---------------------------------------------|


Well thats most of it and im tired of typing.
Comments