System Of A Down - Suite Pee Chords & Tabs

 

Suite Pee Chords & Tabs

System Of A Down Chords & Tabs

Version: 6 Type: Tab 0 ratings
1 star 2 stars 3 stars 4 stars 5 stars
comments

Suite Pee Tab

   
-=Suite-Pee=-
=============
This song's tuning is drop D; then all strings down one whole step
(C-G-C-F-A-D)


Artist: System of a down
Release: System of a down
Transcribed by: Alex Schopf
Email: Wes-God@web.de

MY FAVORIT SYSTEM SONG!!! AND COMPLETLY RIGHT!

A (With natural harmonics and tremolo picking)
1:--------------------------|
2:--------------------------|
3:-5\2/5--------------------|
4:--------5\2/5-------5\2/5-|
5:--------------5\2/5-------|
6:--------------------------|


B
  3x:              1x:
1:----------------|-----------------|
2:----------------|-----------------|
3:----------------|-----------------|
4:-0-0-0-0-1-0-1--|-0-0-0-0-1-0-----|
5:-0-0-0-0-1-0-1--|-0-0-0-0-1-0-12b-|
6:-0-0-0-0-1-0-1--|-0-0-0-0-1-0-12b-|


C
   3x:             1x:
1:----------------|---------------|
2:----------------|---------------|
3:----------------|---------------|
4:-0-0-0-0-1-0-1--|-0-0-0-0-12\-0-|
5:-0-0-0-0-1-0-1--|-0-0-0-0-12\-0-|
6:-0-0-0-0-1-0-1--|-0-0-0-0-12\-0-|


D
1:---------------|-------------9b10-|
2:---------------|------------------|
3:-7-7-7-7-8-7-8-|-7-7-7-7-8-7------|
4:---------------|------------------|
5:---------------|------------------|
6:---------------|------------------|


E
1:---------------|-------------10-|
2:---------------|----------------|
3:-7-7-7-7-8-7-8-|-7-7-7-7-8-7----|
4:---------------|----------------|
5:---------------|----------------|
6:---------------|----------------|


F
[ Tab from: http://www.guitartabs.cc/tabs/s/system_of_a_down/suite_pee_tab_ver_6.html ]
   3x:           1x:            4x:            1x:         3x:           1x:
                           pm.   ............              ............   ..........
1:--------------|--------------|--------------|----------|--------------|---------------|
2:--------------|--------------|--------------|----------|--------------|---------------|
3:--------------|--------------|--------------|----------|--------------|---------------|
4:-0-1-0--0-5-4-|-0-1-0--0-5-4-|-0-1-0--0-5-4-|-5--4b5r4-|-0-1-0--0-5-4-|-0-1-0--0-5-4b-|
5:-0-1-0--0-5-4-|-0-1-0--0-5-4-|-0-1-0--0-5-4-|----------|-0-1-0--0-5-4-|-0-1-0--0-5-4b-|
6:-0-1-0--0-5-4-|-0-1-0--0-5-4-|-0-1-0--0-5-4-|----------|-0-1-0--0-5-4-|-0-1-0--0-5-4b-|

   4x:           1x:                        2x:                    1x:
1:--------------|--------------------------|----------------------|----------------|
2:--------------|--------------------------|----------------------|----------------|
3:--------------|-7-8-7--7-12-11--11b12r11-|-7-8-7--7-12-11--ah11-|-7-8-7--7-12-11-|
4:-0-1-0--0-5-4-|--------------------------|----------------------|----------------|
5:-0-1-0--0-5-4-|-5-6-5--5-10-9---9.b10r.9-|-5-6-5--5-10-9--------|-5-6-5--5-10-9--|
6:-0-1-0--0-5-4-|--------------------------|----------------------|----------------|


G
1:------------10-10-|
2:------------------|
3:-7-7-7-7-8-7------|
4:------------------|
5:------------------|
6:------------------|


H
1:-------------|
2:-------------|
3:-7-7-7-------|
4:-------1-1-1-|
5:-------1-1-1-|
6:-------1-1-1-|


ORDER:
=====

A 2x
B
C
D 3x
E
B
C
D 3x
E
B
C
F
B
C
G 7x
H
Comments