System Of A Down - Suite Pee Chords & Tabs

 

Suite Pee Chords & Tabs

System Of A Down Chords & Tabs

Version: 4 Type: Tab 0 ratings
1 star 2 stars 3 stars 4 stars 5 stars
comments

Suite Pee Tab

   
Band: System Of a Down 
Song: Suite Pee
Tabed By: Jeff H(poo_poo_punk@hotmail.com)
[ Tab from: http://www.guitartabs.cc/tabs/s/system_of_a_down/suite_pee_tab_ver_4.html ]
  
im pretty sure its all right tune down one whole step then to drop D 
intro  2x 
------------------23-23-23--------|--------------------------------| 
20-20-20-23-23-23----------23-20--|---------19-19-19-22-22-22-19---| 
----------------------------------|19-19-19----------------------19| 
----------------------------------|--------------------------------| 
----------------------------------|--------------------------------| 
----------------------------------|--------------------------------| 
 
  
-------------------------------|-------------------------------| 
------------------19-19-19-----|---------19-19-19-22-22-22-19--| 
---------19-19-19----------19--|19-19-19-----------------------| 
19-19-19-----------------------|-------------------------------| 
-------------------------------|-------------------------------| 
-------------------------------|-------------------------------| 
  
riff A   3x               1x         repeat whole riff 
--------------|----------------| 
--------------|----------------| 
--------------|----------------| 
0-0-0-0-1-0-1-|0-0-0-0-1-0-12\-| 
0-0-0-0-1-0-1-|0-0-0-0-1-0-12\-| 
0-0-0-0-1-0-1-|0-0-0-0-1-0-12\-| 
  
  
riff B            4x 
---------------------------10/11-| 
---------------------------------| 
7-7-7-7-8-7-8--7-7-7-7-8-7-------| 
---------------------------------| 
---------------------------------| 
---------------------------------| 
  
riff A 2x 
riff B 4x 
riff A 2x 
  
  
riff C 
--------------------| 
--------------------| 
--------------------| 
0-1-0--1--5--4------|       (the 4th through 8th time palm mute) 
0-1-0--1--5--4------| 
0-1-0--1--5--4------| 
  
  
fill  A 
-------- 
-------- 
-------- 
-------- 
5-4^5-4- 
-------- 
-------- 
  
riff C   4x palm mute 
  
  
  
  
riff D 
               1x |        2x      AH| 
------------------|------------------|---------------| 
------------------|------------------|---------------| 
----------------7-|----------------7-|---------------| 
0-1-0--1--5--4----|0-1-0--1--5--4----|0-1-0--1--5--4-| 
------------------|------------------|---------------| 
------------------|------------------|---------------| 
  
Riff A  2x 
riff B  4x  

ENJOI
Comments