System Of A Down - Suite Pee Chords & Tabs

 

Suite Pee Chords & Tabs

System Of A Down Chords & Tabs

Version: 1 Type: Tab 0 ratings
1 star 2 stars 3 stars 4 stars 5 stars
comments

Suite Pee Tab

-------------------------------------------------------------------------
System of a Down
Song Name: Suite Pee
Tuning: Drop D
-------------------------------------------------------------------------


Intro
-15-/-19-\-15---------------------------------------------15-/-19-\-15-----
---------------15-/-19-\-15-----------------15-/-19-\-15-------------------
------------------------------14-/-18-\-14---------------------------------
---------------------------------------------------------------------------
---------------------------------------------------------------------------
---------------------------------------------------------------------------
[ Tab from: http://www.guitartabs.cc/tabs/s/system_of_a_down/suite_pee_tab.html ]
---------------------------------------------------------------------------
-15-/-19-\-15-----------------15-/-19-\-20---------------------------------
---------------14-/-18-\-14------------------------------------------------
---------------------------------------------------------------------------
---------------------------------------------------------------------------
---------------------------------------------------------------------------

Chorus
-----------------------------------------------------
-----------------------------------------------------
-----------------------------------------------------  2x
-0000-101--0000-101--0000-101--0000-1-0-12-----------
-0000-101--0000-101--0000-101--0000-1-0-12-----------
-0000-101--0000-101--0000-101--0000-1-0-12-----------
                                         ^
                                        Thats a 12  
Verse
------------------10-11------------
-----------------------------------
--777878--777878-------------------
-----------------------------------
-----------------------------------
-----------------------------------

Slowed down part
----------------------
----------------------     
----------------------
-01-0-0-54------------          --5-4-- Done after that part one time
-01-0-0-54------------
-01-0-0-54------------

Comments