System Of A Down - Suggestions Chords & Tabs

 

Suggestions Chords & Tabs

System Of A Down Chords & Tabs

Version: 8 Type: Tab 0 ratings
1 star 2 stars 3 stars 4 stars 5 stars
comments

Suggestions Tab

Suggestion

tune down to:CGCFAD

intro
-|---7---7--|
-|-----0----|
-|-9--------| repeat 4x
-|----------|
-|----------|
-|----------|

                                     repeat all as needed
-|---7---7--|
-|-----0----|
-|-10-------|  repeat 4x
-|----------|
-|----------|
-|----------|

verse
-|------------------------|                       )
-|------------------------|                       )
-|------------------------|                       )
-|----9----9----9----9----|  repeat as needed     )
-|-7----0----7----0----7--|                       )>
-|------------------------|                       )>>
                                                  )>>> repeat all as needed
                                                  )>>
-|------------------------|                       )>
-|------------------------|                       )
-|------------------------|                       )
-|----9----9----9----9----|  repeat as needed     )
-|-8----0----8----0----8--|                       )
-|------------------------|                       )
[ Tab from: http://www.guitartabs.cc/tabs/s/system_of_a_down/suggestions_tab_ver_8.html ]
 Chorus
|----------------------------------------------|
|----------------------------------------------|
|----------------------------------------------|
|-22---------------------33--------------------|
|-22--repeat as needed---33---repeat as needed-|
|-22---------------------33--------------------|

verse

Chorus


-|---------------------------------------------|
-|---------------------------------------------|
-|-8---------------------11--------------------|
-|-x- repeat as needed --x-  repeat as needed--| repeat 2x
-|-6---------------------9---------------------|
-|---------------------------------------------|

intro riff again

|----------------------------------------------|
|----------------------------------------------|
|----------------------------------------------|
|-22---------------------33--------------------|
|-22--repeat as needed---33---repeat as needed-|
|-22---------------------33--------------------|

|----------------------------------------------|
|----------------------------------------------|
|---------------4--------------------5---------|  repeat as needed
|-22222222222222-------33333333333333----------|
|----------------------------------------------|
|----------------------------------------------|

verse

chorus

-|---------------------------------------------|
-|---------------------------------------------|
-|-8---------------------11--------------------|
-|-x- repeat as needed --x-  repeat as needed--| repeat 2x
-|-6---------------------9---------------------|
-|---------------------------------------------|

that is it, try it before u insult, sounds perfect.
Comments