System Of A Down - Sugar Chords & Tabs

 

Sugar Chords & Tabs

System Of A Down Chords & Tabs

Version: 7 Type: Tab 7 ratings
1 star 2 stars 3 stars 4 stars 5 stars
comments

Sugar Tab

Sugar
System of a down



Chorus
e-------------------------------------------
B-------------------------------------------
G-------------------------------------------
D-0-7-6-5--0-7-6-5--0-7-6-5--0-7-6-5--------
A-0-7-6-5--0-7-6-5--0-7-6-5--0-7-6-5--------
E-0-7-6-5--0-7-6-5--0-7-6-5--0-7-6-5--------

verse

e------13-13-12---------10/-----------------
B--10-----------13--10----------------------
G-------------------------------------------
D-------------------------------------------
A-------------------------------------------
E-------------------------------------------

Pre-Chorus

Same as first verse just let it 
ring out a tiny bit longer.

e-----13-13--12--------10----10----10-------
B--10-----------13--10----10----10----10----
G-------------------------------------------
D-------------------------------------------
A-------------------------------------------
E-------------------------------------------

============================================

Repeat Chorus

============================================

verse
[ Tab from: http://www.guitartabs.cc/tabs/s/system_of_a_down/sugar_tab_ver_7.html ]
e------13-13-12---------10/-----------------
B--10-----------13--10----------------------
G-------------------------------------------
D-------------------------------------------
A-------------------------------------------
E-------------------------------------------

Pre-Chorus

SUGAR!!

e-----13-13--12--------10----10----10-------
B--10-----------13--10----10----10----10----
G-------------------------------------------
D-------------------------------------------
A-------------------------------------------
E-------------------------------------------

============================================

Repeat Chorus

============================================

Do this a number of times 
gradually get faster

e------------------------------------------
B------------------------------------------
G------------------------------------------
D-1-0-0----1-0-0-----1--0-0--------1-0-0---
A-1-0-0----1-0-0-----1--0-0--------1-0-0---
E-1-0-0----1-0-0-----1--0-0--------1-0-0---


P.M........P.M..........P.M.....P.M.......
e-------------------------------------------
B-------------------------------------------
G-------------------------------------------LOUDER!!! FASTER!!!!!
D-0-7-6-5--0-7-6-5--0-7-6-5--0-7-6-5--------
A-0-7-6-5--0-7-6-5--0-7-6-5--0-7-6-5--------
E-0-7-6-5--0-7-6-5--0-7-6-5--0-7-6-5--------



Comments