System Of A Down - Sugar Chords & Tabs

 

Sugar Chords & Tabs

System Of A Down Chords & Tabs

Version: 6 Type: Tab 1 rating
1 star 2 stars 3 stars 4 stars 5 stars
comments

Sugar Tab

This is the correct way to play sugar, as it has been in magazines across the nation.
 This song is in drop d tuning.



  Chorus:

E-----------------------------------------------------------
B-----------------------------------------------------------
G-----------------------------------------------------------
D--0-7-6-5------0-7-6-5-------------------------------------
A--0-7-6-5------0-7-6-5-------------------------------------
D--0-7-6-5------0-7-6-5-------------------------------------
[ Tab from: http://www.guitartabs.cc/tabs/s/system_of_a_down/sugar_tab_ver_6.html ]
VERSE:
E------13--13--12----------10-------------------------------
B--10-------------13--10------------------------------------
G-----------------------------------------------------------
D-----------------------------------------------------------   x3
A-----------------------------------------------------------
D-----------------------------------------------------------

E-------10------10--------10-------10-----------------------
B--10-------10-------10--------10---------------------------
G-----------------------------------------------------------
D-----------------------------------------------------------
A-----------------------------------------------------------
D-----------------------------------------------------------
 chorus,then verse.
 
Comments