System Of A Down - Sugar Chords & Tabs

 

Sugar Chords & Tabs

System Of A Down Chords & Tabs

Version: 5 Type: Tab 1 rating
1 star 2 stars 3 stars 4 stars 5 stars
comments

Sugar Tab

sugar...
okey, before i get down to buiseness, i hope you know, this
is the real tab for this song, i didnt figure it out,
it was in GUITAR WORLD january, i think, it was a thing on daron malakian (the guitarist) and he told the guitar for
sugar
chop suey!
and bounce!

also, the tuning is one step lower and then you do a drop d
kindof thing (but its a c this time)

okey

intro/chorus
-----------------------------------
----------------------------------
---------------------------------- and then you keep
---------------------------------- playing until the chorus
-6-5-4--0-6-5-4--0-6-5-4--0-6-5-4- is over
-6-5-4--0-6-5-4--0-6-5-4--0-6-5-4-

verse

----14-14-13--------11--11(slide down)
-11----------14--11-------
--------------------------
---------------------------
---------------------------
---------------------------
[ Tab from: http://www.guitartabs.cc/tabs/s/system_of_a_down/sugar_tab_ver_5.html ]
then, you play the verse thing again butr holding the notes
longer instead of a staccato, then play this:

----11----11----11---11----11
-11----11----11---11----11---
-----------------------------
-----------------------------
-----------------------------
-----------------------------


then 
the part where he goes: 'i sit in my desolate room'
you play:
-----------------
-----------------
------------------
------------------
-1--1-0--1--1-0--
-1--1-0--1--1-0--

then when he goes 'how do ifeel, what do i say, fuck you it all
goes away' you play:


----------------------
----------------------
----------------------
----------------------
-1-x-1-0-1-0-1-0-x-0-0
-1-x-1-0-1-0-1-0-x-0-0
on the x's you  go to an indistinct place on the fingerboard
between the 5th and the 12th frest, and slide down

then you play the chorus with a palm mute and end the song playing 8th notes on the 5th fret

if i fucked up anywhere, id except your complaints /complements
but i havnt got an e-mail address.
Comments