System Of A Down - Sugar Chords & Tabs

 

Sugar Chords & Tabs

System Of A Down Chords & Tabs

Version: 3 Type: Tab 1 rating
1 star 2 stars 3 stars 4 stars 5 stars
comments

Sugar Tab

this if from a guitar world magazine they inrovude daron 
(the syestem guitar player) 
and he gave the tab

DROP D TUNNING

/ slide down neck

INtRO AND CHORUS


--------------------------
--------------------------
--------------------------    repeat for a while
--------------------------
-0-7-6-5--0-7-6-5--0-7-6-5
-0-7-6-5--0-7-6-5--0-7-6-5


Verse Riff
[ Tab from: http://www.guitartabs.cc/tabs/s/system_of_a_down/sugar_tab_ver_3.html ]
-----13-----13-12----------10/-------10/---------------
-10---------------13----10-----------------------------
-------------------------------------------------------
-------------------------------------------------------
-------------------------------------------------------
-------------------------------------------------------
-------------------------------------------------------




Verse Riff#2 / Pre Chorus

-----13-----13-12----------10----10---10--10-----------
-10---------------13----10----10----10--10--10---------
-------------------------------------------------------
-------------------------------------------------------
-------------------------------------------------------
-------------------------------------------------------
-------------------------------------------------------





OUTRO  (part where he starts goin: my desslet room, no lights, no music


---------------------------
---------------------------
---------------------------
---------------------------
-1-----/---1-1-----/---0-0-
-1-----/---0-0-----/---0-0-



well  bye

Comments