System Of A Down - Sugar Chords & Tabs

 

Sugar Chords & Tabs

System Of A Down Chords & Tabs

Version: 10 Type: Tab 0 ratings
1 star 2 stars 3 stars 4 stars 5 stars
comments

Sugar Tab

sytem of a down
   Sugar                    -------------------
                            -------------------
    intro/chorus   8x       -------------------
E|---------|---------|      -------------------
B|---------|---------|      --------- * * * * *
G|---------|---------|      --------- * * * * *
D|---------|---------|      --------- * * * * *
A|-0-7-6-5-|-0-6-6-5-|
E|-0-7-6-5-|-0-6-6-5-|


     riff 1  3x
|-----13---13---12--------10---10-|
|--10--------------13---10--------|
|---------------------------------|
|---------------------------------|
|---------------------------------|
|---------------------------------|


         riff 2    1x         let ring
|------13---13---12--------|-10----10----10----10----|
|--10---------------13~~~10|----10----10----10----10-|
|--------------------------|-------------------------|  
|--------------------------|-------------------------|
|--------------------------|-------------------------|


    chorus  8x
|---------|---------|
|---------|---------|
|---------|---------|
|---------|---------| 
|-0-7-6-5-|-0-6-6-5-|
|-0-7-6-5-|-0-6-6-5-|

[ Tab from: http://www.guitartabs.cc/tabs/s/system_of_a_down/sugar_tab_ver_10.html ]
              2x
|-----13---13---12---------10---10-|
|--10--------------13---10---------|
|----------------------------------|
|----------------------------------|
|----------------------------------|
|----------------------------------|

               1x
|-----13---13---12---------|-10----10----10----10----|
|--10--------------13~~~10-|----10----10----10----10-| 
|--------------------------|-------------------------|
|--------------------------|-------------------------|
|--------------------------|-------------------------|
|--------------------------|-------------------------|


    chorus  8x
|---------|---------|
|---------|---------|
|---------|---------|
|---------|---------|
|-0-7-6-5-|-0-6-6-5-|
|-0-7-6-5-|-0-6-6-5-|


bridge  8x
|----------|  
|----------|
|----------|  (1:47)
|----------|
|-1----1-0-|
|-1----1-0-|

 
     outro      12x
|-------------|---------------|
|-------------|---------------|    gets faster
|-------------|---------------| 
|-------------|---------------|   (1:58)
|-1----x--1-0-|-1-0----x--0-0-|
|-1----x--1-0-|-1-0----x--0-0-|
          p.m _ _         _ _


intro-8x
riff1-3x
riff2-1x
chorus-8x
riff1-2x
riff2-1x
chours-8x
birdge-8x
outro-12x
Comments