System Of A Down - Sugar Chords & Tabs

 

Sugar Chords & Tabs

System Of A Down Chords & Tabs

Version: 7 Type: Bass Tab

Sugar Bass Tab

   
Song: Sugar
Band: System of a Down
Album: System of a Down (1998)
Bassist: Shavo Odadjian
Tabbed by: Jay Yaworski
Tunning: Dropped D tunned down one whole step (CGcF)

Intro:
F|---------------------|
c|---------------------|
G|---------------------|
C|-12-11--10-10--10-9/-|
*the extra spacing is to show that those are 12,11, and 10
[ Tab from: http://www.guitartabs.cc/tabs/s/system_of_a_down/sugar_btab_ver_7.html ]
All verses and Chorus':
F|---------|
c|---------|
G|---------|
C|-0-7-6-5-|
*tempo does vary slightly listen to the song for changes

Interlude:
F|----------|
c|----------|
G|----------|
C|-1----1-0-|

Bridge:
F|---------------------------|
c|---------------------------|
G|---------------------------|
C|-1----12/1-0-1-0----12/1-0-|

Outro:
F|---------|
c|---------|
G|---------|
C|-0-7-6-5-|
*nice and fast

Questions and comments can be sent to Jay at j_yaworski@hotmail.com