System Of A Down - Streamline Chords & Tabs

 

Streamline Chords & Tabs

System Of A Down Chords & Tabs

Version: 9 Type: Tab 0 ratings
1 star 2 stars 3 stars 4 stars 5 stars
comments

Streamline Tab

-------------------------------------------------------------------------------
			     STREAMLINE - System of a Down
-------------------------------------------------------------------------------

Tabbed by: Jeff Tiemann
Email: Heater794@aol.com

Artist: System of a Down
Album: Steal This Album/Scorpion King Soundtrack
Song: Streamline
I'm submitting this tab mostly for the Intro/Chorus parts,
because they were way off on all the other tabs.

Tuning: Drop C
/ = Slide
Intro: Palm Muted
D|---------------------------------------------------------------------------|
A|---------------------------------------------------------------------------|
F|---------------------------------------------------------------------------|
C|---------------------------------------------------------------------------|
G|---------------------------------------------------------------------------|
C|--0-0-2/7-0-0-3-0--2/7-0-0-3-0--2/7-0-0-3-0--2/7-0-0-3-0--2/7-0-0-3-0------|
[ Tab from: http://www.guitartabs.cc/tabs/s/system_of_a_down/streamline_tab_ver_9.html ]
D|---------------------------------------------------------------------------|
A|---------------------------------------------------------------------------|
F|---------------------------------------------------------------------------|
C|---------------------------------------------------------------------------|
G|----------------------------8-8-8-8-8-8------------------------------------|
C|--2/7-0-0-3-0--2/7-0-0-3-0--8-8-8-8-8-8------------------------------------|
                            I Wasn't There For You...
Chorus:
D|---------------------------------------------------------------------------|
A|---------------------------------------------------------------------------|
F|---------------------------------------------------------------------------|
C|---------------------------------------------------------------------------|
G|--0-0-2/7-0-0-3-0--2/7-0-0-3-0--2/7-0-0-3-0--2/7-0-0-3-0--2/7-0-0-3-0------|
C|--0-0-2/7-0-0-3-0--2/7-0-0-3-0--2/7-0-0-3-0--2/7-0-0-3-0--2/7-0-0-3-0------|

D|---------------------------------------------------------------------------|
A|---------------------------------------------------------------------------|
F|---------------------------------------------------------------------------|
C|---------------------------------------------------------------------------|
G|--2/7-0-0-3-0--2/7-0-0-3-0--8-8-8-8-8-8------------------------------------|
C|--2/7-0-0-3-0--2/7-0-0-3-0--8-8-8-8-8-8------------------------------------|
                             I Wasn't There For You...
Verse:
D|------5-----5-----5----5-----5----5----6--4--|
A|----7-----7-----7----7-----7----7------------|
F|--7-----7-----7----7-----7----7----8--6------|
C|---------------------------------------------|
G|---------------------------------------------|
C|---------------------------------------------|(x5)

Solo:
D|--12---14---15----13-11-10-11-10-8-------------------------------|
A|----12---12---12-------------------------------------------------|
F|-----------------------------------------------------------------|
C|-----------------------------------------------------------------|
G|-----------------------------------------------------------------|
C|-----------------------------------------------------------------|

Outro: Same as Chorus

============================================================================
Comments