System Of A Down - Streamline Chords & Tabs

 

Streamline Chords & Tabs

System Of A Down Chords & Tabs

Version: 8 Type: Tab 0 ratings
1 star 2 stars 3 stars 4 stars 5 stars
comments

Streamline Tab

   
Band: System of a Down
Song: Streamline
Album: Steal This Album
Tuning: CGCFAD
Tabbed By: w1crazymofo@bolt.com

^ = bend
/ = slide

Intro         7x
D|--------------|-------------|
A|--------------|-------------|
F|--------------|-------------|
C|--------------|-7-7-7-7-7-7-|
G|--------------|-7-7-7-7-7-7-|
C|-0-4-5^-0-0-3-|-7-7-7-7-7-7-|
   PM..........   PM.........

Chorus        7x
D|--------------|--------------|
A|--------------|--------------|
F|--------------|--------------|
C|--------------|--8-8-8-8-7-5-|
G|-0-4-5^-0-0-3-|--8-8-8-8-7-5-|
C|-0-4-5^-0-0-3-|--8-8-8-8-7-5-|
   PM..........    PM.........

Verse                                                                  4x
D|-----------------------------------------------------------------------|
A|-------10-------10-------10-------10-------10-------10-------11------8-|
F|----11-------11-------11-------11-------11-------11-------12-------9---|
C|-----------------------------------------------------------------------|
G|-12-------12-------12-------12-------12-------12-------13-------10-----|
C|-----------------------------------------------------------------------|

D|-----------------------------------------------------------------|
A|-------10-------10-------10-------10-------10-----5-----3------8-|
F|----11-------11-------11-------11-------11------6-----4------9---|
C|-----------------------------------------------------------------|
G|-12-------12-------12-------12-------12-------7-----5-----10-----|
C|-----------------------------------------------------------------|

D|-----------------------------------------------------------------------|
A|-------10-------10-------10-------10-------10-------10-------11------8-|
F|----11-------11-------11-------11-------11-------11-------12-------9---|
C|-----------------------------------------------------------------------|
G|-12-------12-------12-------12-------12-------12-------13-------10-----|
C|-----------------------------------------------------------------------|

Fill
D|-------------------------------------------------------------|
A|-------------------------------------------15-15-15-15-15-15-|
F|-------------------------10-10-10-10-10-10-14-14-14-14-14-14-|
C|-5-5-5-5-5-5-7-7-7-7-7-7-8--8--8--8--8--8--12-12-12-12-12-12-|
G|-5-5-5-5-5-5-7-7-7-7-7-7-8--8--8--8--8--8--12-12-12-12-12-12-|
C|-5-5-5-5-5-5-7-7-7-7-7-7-8--8--8--8--8--8--12-12-12-12-12-12-|
   PM......................slowly release.....................
[ Tab from: http://www.guitartabs.cc/tabs/s/system_of_a_down/streamline_tab_ver_8.html ]
Solo
D|-------------------15-13-12-13-12h13p12------------------------15-13-12-13-12h13p12-15-|
A|-15----17----18--------------------------15--15----17----18----------------------------|
F|----14----14----14------------------------------14----14----14-------------------------|
C|---------------------------------------------------------------------------------------|
G|---------------------------------------------------------------------------------------|
C|---------------------------------------------------------------------------------------|

D|-17-----------------------------17----------------------------|
A|----17-18-17h18p17-15-17-15--------17-18-17h18h17-15-17-15----|
F|----------------------------17-----------------------------17-|
C|--------------------------------------------------------------|
G|--------------------------------------------------------------|
C|--------------------------------------------------------------|

D|-------------------15-13-12-13-12h13p12-15-17----------------------------|
A|-15----17----18-------------------------------17-18-17h18p17-15-17-15----|
F|----14----14----14----------------------------------------------------17-|
C|-------------------------------------------------------------------------|
G|-------------------------------------------------------------------------|
C|-------------------------------------------------------------------------|

D|-17----------------------------|
A|----17-18-17h18p17-15-17-15----|
F|----------------------------17-|
C|-------------------------------|
G|-------------------------------|
C|-------------------------------|

                                     3x
D|-17-17-17----------------------------|-17-17-17----------------------|
A|----------17-17-17-18-17-15-17-15----|----------17-17-17-------------|
F|----------------------------------17-|-------------------------------|
C|-------------------------------------|-------------------5-5-5-5-5-5-|
G|-------------------------------------|-------------------5-5-5-5-5-5-|
C|-------------------------------------|-------------------5-5-5-5-5-5-|
   PM.................................   PM...........................

After Fill                 4x
D|---------------------------|
A|---------------------------|
F|---------------------------|
C|---------------------------|
G|-0-4-5^-0-0-3-0-4-5^-0-0-3-|
C|-0-4-5^-0-0-3-0-4-5^-0-0-3-|

Outro
D|-------------------------------------------------------|
A|-------------------------------------------------------|
F|-------------------------------------------------------|
C|-5-5-5-5-5-5-7-7-7-7-7-7-8-8-8-8-8-8-10-10-10-10-10-10-|
G|-5-5-5-5-5-5-7-7-7-7-7-7-8-8-8-8-8-8-10-10-10-10-10-10-|
C|-5-5-5-5-5-5-7-7-7-7-7-7-8-8-8-8-8-8-10-10-10-10-10-10-|
   PM...................................................

D|-------------------------------------------------------------------------|
A|-------------------------------------------13-13-13-13-13-13-15----------|
F|-------------9-9-9-9-9-9-10-10-10-10-10-10-12-12-12-12-12-12-14-let ring-|
C|-5-5-5-5-5-5-7-7-7-7-7-7-8--8--8--8--8--8--10-10-10-10-10-10-12----------|
G|-5-5-5-5-5-5-7-7-7-7-7-7-8--8--8--8--8--8--10-10-10-10-10-10-12----------|
C|-5-5-5-5-5-5-7-7-7-7-7-7-8--8--8--8--8--8--10-10-10-10-10-10-12----------|
   PM........................................slowly release......
Comments