System Of A Down - Streamline Chords & Tabs

 

Streamline Chords & Tabs

System Of A Down Chords & Tabs

Version: 12 Type: Tab 0 ratings
1 star 2 stars 3 stars 4 stars 5 stars
comments

Streamline Tab

   
Band: System Of A Down
Album: Steal this Album
Tabbed by: Sean McRae

This tab is for all of those people who are like me and dont want to change your
whole guitars tuning just to play a song. The tuning for this song is normally 
CGCFAD but i altered it to drop D tuning and to me it sounds perfect with the song.
I hope you like it.




Intro(clean)
     palm mute
E |------------------|
B |------------------|
G |------------------|
D |------------------| 7 times
A |------------------|
D |-0--0-5b7--0-0-3--|
     
=================================================================
  (Distorted)
E |--------------|
B |--------------|
G |--------------|
D |-3-3-3-3-3-3--|
A |-3-3-3-3-3-3--|
D |-3-3-3-3-3-3--|

                                    Play both 2 times in order
  (Distorted)
E |------------------|
B |------------------|
G |------------------|
D |------------------| 7 times
A |-0--0------0-0----|
D |-0--0-5b7--0-0-3--|

=================================================================

  (Distorted)
E |-------------|
B |-------------|
G |-------------|
D |-6-6-6-6-5-3-|
A |-6-6-6-6-5-3-|
D |-6-6-6-6-5-3-|


  (clean)
E |-----------------------------------------------|-------------------|
B |------8------8-------8-------8-------8------8--|--------9--------6-|
G |----9------9-------9-------9-------9------9----|------8--------5---|
D |-10-----10------10------10------10-----10------|----6--------3-----| 4 times
A |-----------------------------------------------|-------------------|
D |-----------------------------------------------|-------------------|

  (clean)
E |-----------------------------------------------|----------------|
B |------8------8-------8-------8-------8------4--|------4-------6-|
G |----9------9-------9-------9-------9----5-5----|----5-------5---|
D |-10-----10------10------10------10-------------|--6-------3-----|
A |-----------------------------------------------|----------------|
D |-----------------------------------------------|----------------|

  (clean)
E |-----------------------------------------------|-------------------|
B |------8------8-------8-------8-------8------8--|--------9--------6-|
G |----9------9-------9-------9-------9------9----|------8--------5---|
D |-10-----10------10------10------10-----10------|----6--------3-----|
A |-----------------------------------------------|-------------------|
D |-----------------------------------------------|-------------------|

=================================================================
  (Distorted)
E |--------------|
B |--------------|
G |--------------|
D |-3-3-3-3-3-3--|
A |-3-3-3-3-3-3--|
D |-3-3-3-3-3-3--|
                              Play both 4 times in order
  (Distorted)
E |------------------|
B |------------------|
G |------------------|
D |------------------| 3 times
A |-0--0------0-0----|
D |-0--0-5b7--0-0-3--|

=================================================================

  (Distorted)
E |-------------|
B |-------------|
G |-------------|
D |-6-6-6-6-5-3-|
A |-6-6-6-6-5-3-|
D |-6-6-6-6-5-3-|


  (clean)
E |-----------------------------------------------|-------------------|
B |------8------8-------8-------8-------8------8--|--------9--------6-|
G |----9------9-------9-------9-------9------9----|------8--------5---|
D |-10-----10------10------10------10-----10------|----6--------3-----|
A |-----------------------------------------------|-------------------|
D |-----------------------------------------------|-------------------|
  
  (clean)
E |-----------------------------------------------|-----------------|
B |------8------8-------8-------8-------8------8--|-----------------|
G |----9------9-------9-------9-------9------9----|-----------------|
D |-10-----10------10------10------10-----10------|--6--------3-----|
A |-----------------------------------------------|-----------------|
D |-----------------------------------------------|-----------------|

  (clean)
E |-----------------------------------------------|-------------------|
B |------8------8-------8-------8-------8------8--|--------9--------6-|
G |----9------9-------9-------9-------9------9----|------8--------5---|
D |-10-----10------10------10------10-----10------|----6--------3-----| 4 times
A |-----------------------------------------------|-------------------|
D |-----------------------------------------------|-------------------|
[ Tab from: http://www.guitartabs.cc/tabs/s/system_of_a_down/streamline_tab_ver_12.html ]
=================================================================

  (Distorted)
E |--------------|
B |--------------|
G |--------------|
D |-3-3-3-3-3-3--|
A |-3-3-3-3-3-3--|
D |-3-3-3-3-3-3--|
                                     Play both 4 times in order
  (Distorted)
E |------------------|
B |------------------|
G |------------------|
D |------------------| 3 times
A |-0--0------0-0----|
D |-0--0-5b7--0-0-3--|

=================================================================

  (Distorted)
E |-------------|
B |-------------|
G |-------------|
D |-6-6-6-6-5-3-|
A |-6-6-6-6-5-3-|
D |-6-6-6-6-5-3-|


   (Distorted)
E |-------------|-------------|-------------|-8-8-8-8-8-8-|
B |-------------|-------------|-------------|-8-8-8-8-8-8-|
G |-------------|-------------|-------------|-------------|
D |-3-3-3-3-3-3-|-3-3-3-3-3-3-|-3-3-3-3-3-3-|-------------|
A |-3-3-3-3-3-3-|-3-3-3-3-3-3-|-3-3-3-3-3-3-|-------------|
D |-3-3-3-3-3-3-|-3-3-3-3-3-3-|-3-3-3-3-3-3-|-------------|


  (Distorted)
E |-8----10-----11--------13--11--10--11--10--8--|
B |---8------8------8----------------------------|
G |----------------------------------------------|
D |----------------------------------------------|
A |----------------------------------------------|
D |----------------------------------------------|

E |--8-----10-----11-----13--11--10--11--10--11--|
B |-----8------8------8--------------------------|
G |----------------------------------------------|
D |----------------------------------------------|
A |----------------------------------------------|
D |----------------------------------------------|

E |---15-----------------------------------------|
B |-------15--16--15--13--15--13-----------------|
G |-------------------------------15-------------|
D |----------------------------------------------| 2 times
A |----------------------------------------------|
D |----------------------------------------------|

E |--8-----10-----11-----13--11--10--11--10--11--|
B |-----8------8------8--------------------------|
G |----------------------------------------------|
D |----------------------------------------------|
A |----------------------------------------------|
D |----------------------------------------------|

E |---15-----------------------------------------|
B |-------15--16--15--13--15--13-----------------|
G |-------------------------------15-------------| 
D |----------------------------------------------| 2 times
A |----------------------------------------------|
D |----------------------------------------------|

   palm mute
E |--15--15--15-----------------------------------------|
B |--------------15--15--15--16--15--13--15--13---------|
G |----------------------------------------------15-----|
D |-----------------------------------------------------| 4 times
A |-----------------------------------------------------|
D |-----------------------------------------------------|

=================================================================

  (Distorted)
E |--------------|
B |--------------|
G |--------------|
D |-3-3-3-3-3-3--|
A |-3-3-3-3-3-3--|
D |-3-3-3-3-3-3--|
                                 Play both 2 times in order
  (Distorted)
E |------------------|
B |------------------|
G |------------------|
D |------------------| 3 times
A |-0--0------0-0----|
D |-0--0-5b7--0-0-3--|

=================================================================

  (Distorted)
E |-------------|
B |-------------|
G |-------------|
D |-6-6-6-6-5-3-|
A |-6-6-6-6-5-3-|
D |-6-6-6-6-5-3-|

   (Distorted)
E |-------------|-------------|-------------|-8-8-8-8-8-8-|
B |-------------|-------------|-------------|-8-8-8-8-8-8-|
G |-------------|-------------|-------------|-------------|
D |-3-3-3-3-3-3-|-3-3-3-3-3-3-|-3-3-3-3-3-3-|-------------|
A |-3-3-3-3-3-3-|-3-3-3-3-3-3-|-3-3-3-3-3-3-|-------------|
D |-3-3-3-3-3-3-|-3-3-3-3-3-3-|-3-3-3-3-3-3-|-------------|

  (Distorted)
E |------------------|
B |------------------|
G |------------------|
D |------------------| 7 times
A |-0--0------0-0----|
D |-0--0-5b7--0-0-3--|


  (Distorted)
E |-------------|-------------|-------------|-------------|
B |-------------|-------------|-------------|-------------|
G |-------------|-------------|-------------|-------------|
D |-3-3-3-3-3-3-|-3-3-3-3-3-3-|-3-3-3-3-3-3-|-3-3-3-3-3-3-| 2 times
A |-3-3-3-3-3-3-|-3-3-3-3-3-3-|-3-3-3-3-3-3-|-3-3-3-3-3-3-|
D |-3-3-3-3-3-3-|-3-3-3-3-3-3-|-3-3-3-3-3-3-|-3-3-3-3-3-3-|

  At the end let it ring.
Comments