System Of A Down - Streamline Chords & Tabs

 

Streamline Chords & Tabs

System Of A Down Chords & Tabs

Version: 10 Type: Tab 0 ratings
1 star 2 stars 3 stars 4 stars 5 stars
comments

Streamline Tab

this is an awesome solo.



e----------------------------------------------------------------------------
b--13------15--------16--------18---16---15----16-----15------13----13-------
g------12-------12--------12-----------------------------------------------12
d----------------------------------------------------------------------------
a----------------------------------------------------------------------------
e----------------------------------------------------------------------------


e---------------------------------------------------------------15-----------
b---15-------16------------18----16-----15----16----15----13-----------15----
g--------13----------13------------------------------------------------------
d----------------------------------------------------------------------------
a----------------------------------------------------------------------------
e----------------------------------------------------------------------------

e-------------------------------------15--------------------------------------
b---16----15----13----15-----13---11-------15----16----15---13---15---13---11-
g-----------------------------------------------------------------------------
d-----------------------------------------------------------------------------
a-----------------------------------------------------------------------------
e-----------------------------------------------------------------------------

[ Tab from: http://www.guitartabs.cc/tabs/s/system_of_a_down/streamline_tab_ver_10.html ]
e---------------------------------------------------------------------15-------
b---13---------15---------16---------18----16---15----16----15---13-------15---
g--------12----------12---------12---------------------------------------------
d------------------------------------------------------------------------------
a------------------------------------------------------------------------------
e------------------------------------------------------------------------------


e-------------------------------------15----------------------------------------
b----16-----15---13---15---13----11--------15----16-----15----13---15----13--11-
g-------------------------------------------------------------------------------
d-------------------------------------------------------------------------------
a-------------------------------------------------------------------------------
e-------------------------------------------------------------------------------

After this is like putting your fingers on the frets but not pushing down on
the strings with some rythm or something.  i don't think this part is completely
correct, but you'll figure it out.

e--------15-------------------------------------------------------------
b---13------------------------------------------------------------------
g-----------------------------------------------------------------------
d-----------------------------------------------------------------------
a-----------------------------------------------------------------------
e-----------------------------------------------------------------------


send any comments or what have you to niftyspif1@msn.com
Comments