System Of A Down - Streamline Chords & Tabs

 

Streamline Chords & Tabs

System Of A Down Chords & Tabs

Version: 1 Type: Tab 0 ratings
1 star 2 stars 3 stars 4 stars 5 stars
comments

Streamline Tab

   
-=Streamline=- System of a down
=============
tabs by Javier Rodríguez
(C-G-C-F-A-D)

A:
|---------------|
|---------------|
|---------------|
|-0-5-5/7-0-0-3-|
|---------------|
|---------------|
pm. . .   . . .

B:
|-------------|
|-------------|
|-------------|
|-5-5-5-5-5-5-|
|-5-5-5-5-5-5-|
|-5-5-5-5-5-5-|
pm. . . . . .

C:           
|---------------|------------|
|---------------|------------|
|---------------|------------|
|-0-5-5/7-0-0-3-|--8-8-8-7-5-|
|-0-5-5/7-0-0-3-|--8-8-8-7-5-|
|-0-5-5/7-0-0-3-|--8-8-8-7-5-|
pm. . .   . . .    . . . . .
                 

D:
|---------|----------------|
|-----10--|------11------8-|
|---7-----|---10-------7---|
|-0-------|-8--------5-----|
|---------|----------------|
|---------|----------------|
|repeat x6|


E:
|-------------------------------------------------------|
|-------------------------------------------------------|
|-------------------------------------------------------|
|-5-5-5-5-5-5-7-7-7-7-7-7-8-8-8-8-8-8-12-12-12-12-12-12-|
|-5-5-5-5-5-5-7-7-7-7-7-7-8-8-8-8-8-8-12-12-12-12-12-12-|
|-5-5-5-5-5-5-7-7-7-7-7-7-8-8-8-8-8-8-12-12-12-12-12-12-|
pm. . . . . . . . . . . . . . . . . .  .  .  .  .  .  .


solo:
|-------------------------------------------------|
|-15------17------18------20-18-17-18-17h18p17-15-|
|-----14------14------14--------------------------|
|-------------------------------------------------|
|-------------------------------------------------|
|-------------------------------------------------|
[ Tab from: http://www.guitartabs.cc/tabs/s/system_of_a_down/streamline_tab.html ]
|-------------------------------------------17----------------------|
|-15------17------18------20-18-17-18-17-18----17-18-17-15-17-15----|
|-----14------14------14-----------------------------------------17-|
|-------------------------------------------------------------------|
|-------------------------------------------------------------------|
|-------------------------------------------------------------------|

|-17-----------------------------|
|-----17-18-17h18p17-15-17-15----|
|-----------------------------17-|
|--------------------------------|
|--------------------------------|
|--------------------------------|

|--------------------------------------------|
|-15------17------18-------20-18-17-18-17-18-|
|-----14------14------14---------------------|
|--------------------------------------------|
|--------------------------------------------|
|--------------------------------------------|

|-17-----------------------------|-17-----------------------------|
|-----17-18-17h18p17-15-17-15----|-----17-18-17h18p17-15-17-15----|
|-----------------------------17-|-----------------------------17-|
|--------------------------------|--------------------------------|
|--------------------------------|--------------------------------|
|--------------------------------|--------------------------------|


PRE-SOLO:
|-17-17-17-----------------------------|-------------|
|----------17-17-17--18-17-15-17-15----|-------------|
|-----------------------------------17-|-------------|
|--------------------------------------|-5-5-5-5-5-5-|
|--------------------------------------|-5-5-5-5-5-5-|
|--------------------------------------|-5-5-5-5-5-5-|
pm.  .  .  .  .  .   .  .  .  .  .  .    . . . . . .
                                         (last time)

Order:
======

haberigualoooooooooooooooooo
Comments