System Of A Down - Streamline Solo Chords & Tabs

 

Streamline Solo Chords & Tabs

System Of A Down Chords & Tabs

Version: 1 Type: Tab 4 ratings
1 star 2 stars 3 stars 4 stars 5 stars
comments

Streamline Solo Tab

At last the solo (solo starts at 2:15),and it actually sounds like it…hope u enjoy…

Artist: System of a Down 
Title: Streamline 
Album: Scorpion King Soundtrack  
Transcribed by: Sam Dawkins 
Email: chop_suey53@hotmail.com 
Tuning: Drop D (yes Drop D God Dammit!!!)


D|--8-----10-----11--------13-11-10-11-10-8--------------|
A|-----8------8------8-----------------------------------|
F|-------------------------------------------------------|
C|-------------------------------------------------------|
G|-------------------------------------------------------|
C|-------------------------------------------------------|

D|--8-----10-----11--------13-11-10-11-10-8--------------|
A|-----8------8------8-----------------------------------|
F|-------------------------------------------------------|
C|-------------------------------------------------------|
G|-------------------------------------------------------|
C|-------------------------------------------------------|

D|--15---------------------------------------------------|
A|------15----16-15-13-15-13-----------------------------|
F|---------------------------15--------------------------|
C|-------------------------------------------------------|
G|-------------------------------------------------------|
C|-------------------------------------------------------|
[ Tab from: http://www.guitartabs.cc/tabs/s/system_of_a_down/streamline_solo_tab.html ]
D|--15---------------------------------------------------|
A|------15----16-15-13-15-13-----------------------------|
F|---------------------------15--------------------------|
C|-------------------------------------------------------|
G|-------------------------------------------------------|
C|-------------------------------------------------------|

D|--8-----10-----11--------13-11-10-11-10-8--------------|
A|-----8------8------8-----------------------------------|
F|-------------------------------------------------------|
C|-------------------------------------------------------|
G|-------------------------------------------------------|
C|-------------------------------------------------------|

D|--15---------------------------------------------------|
A|------15----16-15-13-15-13-----------------------------|
F|---------------------------15--------------------------|
C|-------------------------------------------------------|
G|-------------------------------------------------------|
C|-------------------------------------------------------|

D|--15---------------------------------------------------|
A|------15----16-15-13-15-13-----------------------------|
F|---------------------------15--------------------------|
C|-------------------------------------------------------|
G|-------------------------------------------------------|
C|-------------------------------------------------------|

D|--15-15-15---------------------------------------------|
A|------15-15-15--16-15-13-15-13-------------------------|
F|-------------------------------15----------------------|
C|-------------------------------------------------------|
G|-------------------------------------------------------|
C|-------------------------------------------------------|
P.M -------------------------------

Repeat the last part 4 times
Comments