System Of A Down - Spiders Chords & Tabs

 

Spiders Chords & Tabs

System Of A Down Chords & Tabs

Version: 8 Type: Tab 2 ratings
1 star 2 stars 3 stars 4 stars 5 stars
comments

Spiders Tab

Band: System Of A Down
Song: Spiders

Intro     (play x2)   
|-------------------------|
|-------------------------|
|-------------------------|
|-------------------------|
|---7---7---5---5-5---5---|
|-0---0---0---0-----0---0-|

|--------------------------|
|--------------------------|
|--------------------------|
|--------------------------|
|---8---7---10---8-8---7-8-|
|-0---0---0----0-----0-----|

           (play x3)
|-------------------------|    
|-------------------------|    
|-------------------------|
|-------------------------|
|---7---7---5---5-5---5---|
|-0---0---0---0-----0---0-|

|--------------------------|
|--------------------------|
|--------------------------|
|--------------------------|
|---8---7---10---8-8---7-8-|
|-0---0---0----0-----0-----|

         (play x3)
|-------------------------|
|-------------------------|
|-------------------------|
|-------------------------|
|---7---7---5---5-5---5---|
|-0---0---0---0-----0---0-|

|--------------------------|-------------|
|--------------------------|-------------|
|--------------------------|-------------|
|--------------------------|-------------|
|---8---7---10---8-8---7-8-|---7---7---5-|
|-0---0---0----0-----0-----|-0---0---0---|

            (play x2)
|----------------------------|
|----------------------------|
|----------------------------|
|-10--10--10-10--10-10-10-10-|
|-10--10--10-10--10-10-10-10-|
|-10--10--10-10--10-10-10-10-|

           (play x2)
|-------------------------|
|-------------------------|
|---9---9---7---7-7---7-7-|
|---x---x---x---x-----x-x-|
|---7---7---5---5-5---5-5-|
|-0---0---0---0-----0-----|

|---------------------------------------------|
|---------------------------------------------|
|---14---12---15---14-14---12/14---12---12/14-|
|----x----x----x----x-------x/------x----x/---|
|---12---10---13---12-12---10/12---10---10/12-|
|-0----0----0----0-------0-------0----0-------|

|------------|
|------------|
|---10-10-10-|
|----x--x--x-|
|----8--8--8-|
|-0-----0----|

|----------------------------|
|----------------------------|
|----------------------------|
|-10--10--10-10--10-10-10-10-|
|-10--10--10-10--10-10-10-10-|
|-10--10--10-10--10-10-10-10-|

|---------------------------|
|---------------------------|
|---------------------------|
|-8-8-8-8-8-7-7-7-7-7-7-7-7-|
|-8-8-8-8-8-7-7-7-7-7-7-7-7-|
|-8-8-8-8-8-7-7-7-7-7-7-7-7-|

          (Play x4)
|-------------------------|
|-------------------------|
|---9---9---7---7-7---7-7-|
|---x---x---x---x-----x-x-|
|---7---7---5---5-5---5-5-|
|-0---0---0---0-----0-----|

|---------------------------------------------|
|---------------------------------------------|
|---14---12---15---14-14---12/14---12---12/14-|
|----x----x----x----x-------x/------x----x/---|
|---12---10---13---12-12---10/12---10---10/12-|
|-0----0----0----0-------0-------0----0-------|

|------------|
|------------|
|---10-10-10-|
|----x--x--x-|
|----8--8--8-|
|-0-----0----|

         (Play x2)
|-------------------------|
|-------------------------|
|---9---9---7---7-7---7-7-|
|---x---x---x---x-----x-x-|
|---7---7---5---5-5---5-5-|
|-0---0---0---0-----0-----|

|---------------------------------------------|
|---------------------------------------------|
|---14---12---15---14-14---12/14---12---12/14-|
|----x----x----x----x-------x/------x----x/---|
|---12---10---13---12-12---10/12---10---10/12-|
|-0----0----0----0-------0-------0----0-------|

|------------|
|------------|
|---10-10-10-|
|----x--x--x-|
|----8--8--8-|
|-0-----0----|

            (play x2)
|----------------------------|
|----------------------------|
|----------------------------|
|-10--10--10-10--10-10-10-10-|
|-10--10--10-10--10-10-10-10-|
|-10--10--10-10--10-10-10-10-|

|---------------------------------------------|
|---------------------------------------------|
|---14---12---15---14-14---12/14---12---12/14-|
|----x----x----x----x-------x/------x----x/---|
|---12---10---13---12-12---10/12---10---10/12-|
|-0----0----0----0-------0-------0----0-------|

|------------|
|------------|
|---10-10-10-|
|----x--x--x-|
|----8--8--8-|
|-0-----0----|
[ Tab from: http://www.guitartabs.cc/tabs/s/system_of_a_down/spiders_tab_ver_8.html ]
|----------------------------|
|----------------------------|
|----------------------------|
|-10--10--10-10--10-10-10-10-|
|-10--10--10-10--10-10-10-10-|
|-10--10--10-10--10-10-10-10-|

|---------------------------|
|---------------------------|
|---------------------------|
|-8-8-8-8-8-7-7-7-7-7-7-7-7-|
|-8-8-8-8-8-7-7-7-7-7-7-7-7-|
|-8-8-8-8-8-7-7-7-7-7-7-7-7-|

(repeat each column as needed) (play x2)
|----|----|-------|----|
|----|----|-------|----|
|----|----|-------|----|
|-14-|-15-|-15/18-|-18-|
|--x-|--x-|--x/-x-|--x-|
|-12-|-13-|-13/15-|-15-|

|-------------------------------------------------|
|-------------------------------------------------|
|----19----19----19----19----19----19----19----19-|
|-------------------------------------------------|
|-17----17----17----17----17----17----17----17----|
|-------------------------------------------------|

|-------------------------------------------------|
|-------------------------------------------------|
|----20----20----20----20----18----18----18----18-|
|-------------------------------------------------|
|-18----18----18----18----16----16----16----16----|
|-------------------------------------------------|

|-------------------------------------------------|
|-------------------------------------------------|
|----19----19----19----19----19----19----19----19-|
|-------------------------------------------------|
|-17----17----17----17----17----17----17----17----|
|-------------------------------------------------|

|------------------------------------------------|
|------------------------------------------------|
|----20----20----20----20----18----18-18-18-18---|
|--------------------------------------x--x--x-0-|
|-18----18----18----18----16----16----16-16-16-0-|
|----------------------------------------------0-|

    (play x2)
|----------------------------|
|----------------------------|
|----------------------------|
|-10--10--10-10--10-10-10-10-|
|-10--10--10-10--10-10-10-10-|
|-10--10--10-10--10-10-10-10-|

|---------------------------------------------|
|---------------------------------------------|
|---14---12---15---14-14---12/14---12---12/14-|
|----x----x----x----x-------x/------x----x/---|
|---12---10---13---12-12---10/12---10---10/12-|
|-0----0----0----0-------0-------0----0-------|

|------------|
|------------|
|---10-10-10-|
|----x--x--x-|
|----8--8--8-|
|-0-----0----|

|----------------------------|
|----------------------------|
|----------------------------|
|-10--10--10-10--10-10-10-10-|
|-10--10--10-10--10-10-10-10-|
|-10--10--10-10--10-10-10-10-|

|---------------------------|
|---------------------------|
|---------------------------|
|-8-8-8-8-8-7-7-7-7-7-7-7-7-|
|-8-8-8-8-8-7-7-7-7-7-7-7-7-|
|-8-8-8-8-8-7-7-7-7-7-7-7-7-|

|---------------------------------------------|
|---------------------------------------------|
|---14---12---15---14-14---12/14---12---12/14-|
|----x----x----x----x-------x/------x----x/---|
|---12---10---13---12-12---10/12---10---10/12-|
|-0----0----0----0-------0-------0----0-------|

|------------|
|------------|
|---10-10-10-|
|----x--x--x-|
|----8--8--8-|
|-0-----0----|

|----------------------------|
|----------------------------|
|----------------------------|
|-10--10--10-10--10-10-10-10-|
|-10--10--10-10--10-10-10-10-|
|-10--10--10-10--10-10-10-10-|

|---------------------------|
|---------------------------|
|---------------------------|
|-8-8-8-8-8-7-7-7-7-7-7-7-7-|
|-8-8-8-8-8-7-7-7-7-7-7-7-7-|
|-8-8-8-8-8-7-7-7-7-7-7-7-7-|

      (play x4)
|-------------------------|
|-------------------------|
|---9---9---7---7-7---7-7-|
|---x---x---x---x-----x-x-|
|---7---7---5---5-5---5-7-|
|-0---0---0---0-----0-----|

|---------------------------------------------|
|---------------------------------------------|
|---14---12---15---14-14---12/14---12---12/14-|
|----x----x----x----x-------x/------x----x/---|
|---12---10---13---12-12---10/12---10---10/12-|
|-0----0----0----0-------0-------0----0-------|

|------------|
|------------|
|---10-10-10-|
|----x--x--x-|
|----8--8--8-|
|-0-----0----|

|---------------------------------------------|
|---------------------------------------------|
|---14---12---15---14-14---12/14---12---12/14-|
|----x----x----x----x-------x/------x----x/---|
|---12---10---13---12-12---10/12---10---10/12-|
|-0----0----0----0-------0-------0----0-------|

|------------|
|------------|
|---10-10-10-|
|----x--x--x-|
|----8--8--8-|
|-0-----0----|

Good luck and have fun! 
Comments