System Of A Down - Spiders Chords & Tabs

 

Spiders Chords & Tabs

System Of A Down Chords & Tabs

Version: 14 Type: Tab 0 ratings
1 star 2 stars 3 stars 4 stars 5 stars
comments

Spiders Tab

   
Spiders by System of a Down
Album - System of a Down

Tuning: drop C (CGCFAD)

This tab is right! it is straight out of the sheet music

Intro 
(let 0 ring throughout)
F----------------------------------------------
A----------------------------------------------
D----------------------------------------------
C----------------------------------------------
G---7---7---5---5---5-----7----7---5---5---5---
C-0---0---0---0---0---0-0---0----0---0---0---0-

F-------------------------
A-------------------------
D-------------------------
C-------------------------
G----8---7---10---8---7-8-
C--0---0---0----0---0-----

F---------------------------------------------
A---------------------------------------------
D---------------------------------------------
C---------------------------------------------
G---7---7---5---5---5-----7----7---5---5---5--
C-0---0---0---0---0---0-0---0----0---0---0---0

Chorus
F----------------------------------------
A----------------------------------------
D----------------------------------------
C----------------------------------------
G-10-10-10-10-10-10-10-10-10-10-10-10-10-
C-10-10-10-10-10-10-10-10-10-10-10-10-10-

F-------------------------------------
A-------------------------------------
D-------------------------------------
C-------------------------------------
G-10-10-10-10-10-10-10-10-10-10-10-12-
C-10-10-10-10-10-10-10-10-10-10-10-12-

(Riff B)
F-----------------------------------
A-----------------------------------
D---14-12---15---14---12-/-14---12--
C----X--X----X----X----X-/--X----X--
G---12-10---13---12---10-/-12---10--
C-0-------0----0----0---------0-----

F-
A-
D-12-/-14---10---10-10-10-10-10-10--
C--X-/--X----X--X--X--X--X--X--X-0--
G-10-/-12----8--8--8--8--8--8--8-0--
C---------0--0--0--0--0--0--0--0-0--

(Rhy. Fig. 1)
F----------------------------------
A----------------------------------
D----------------------------------
C----------------------------------
G-10-10-10-10-10-10-10-10-10-10-10-
C-10-10-10-10-10-10-10-10-10-10-10-

F----------------------------
A----------------------------
D----------------------------
C----------------------------
G-8-8-8-8-8--7-7-7-7-7-7-7-7-
C-8-8-8-8-8--7-7-7-7-7-7-7-7-

(Riff C)
Repeat once
F--------------------------------------------
A--------------------------------------------
D---9---9---7---7---7--7----9---9---7---7--7-
C---X---X---X---X---X--X----X---X---X---X--X-
G---7---7---5---5---5--5----7---7---5---5--5-
C-0---0---0---0---0-------0---0---0---0------

Solo
F-----------------------------------
A-----------------------------------
D--14-14-14-14-14-14-14-14-14-14-14- 
C---x--x--X--X--X--X--X--X--X--X--X- 
G--12-12-12-12-12-12-12-12-12-12-12- 
C-----------------------------------

F----------------------------------------
A----------------------------------------
D-14-14-14-14-14-14-14-14-14-14-14-14-14-
C--X--X--X--X--X--X--X--X--X--X--X--X--X-
G-12-12-12-12-12-12-12-12-12-12-12-12-12-
C----------------------------------------

F----------------------------------------------
A----------------------------------------------
D--15-15-15-15-15-15-15-15-15-15-15-15-15-/-18-
C---X--X--X--X--X--X--X--X--X--X--X--X--X-/--X-
G--13-13-13-13-13-13-13-13-13-13-13-13-13-/-16-
C----------------------------------------------

F---------------------------------------
A---------------------------------------
D-18-18-18-18-18-18-18-18-18-18-18-18-\-
C--X--X--X--X--X--X--X--X--X--X--X--X-\-
G-16-16-16-16-16-16-16-16-16-16-16-16-\-
C---------------------------------------
[ Tab from: http://www.guitartabs.cc/tabs/s/system_of_a_down/spiders_tab_ver_14.html ]
F--------------------------------------
A--------------------------------------
D--14-14-14-14-14-14-14-14-14-14-14-14-
C---x--x--X--X--X--X--X--X--X--X--X--X-
G--12-12-12-12-12-12-12-12-12-12-12-12-
C--------------------------------------

F-------------------------------------------
A-------------------------------------------
D-14-14-14-14-14-14-14-14-14-14-14-14-14-14-
C--X--X--X--X--X--X--X--X--X--X--X--X--X--X-
G-12-12-12-12-12-12-12-12-12-12-12-12-12-12-
C-------------------------------------------

F----------------------------------------------
A----------------------------------------------
D--15-15-15-15-15-15-15-15-15-15-15-15-15-/-18-
C---X--X--X--X--X--X--X--X--X--X--X--X--X-/--X-
G--13-13-13-13-13-13-13-13-13-13-13-13-13-/-16-
C----------------------------------------------

F-------------------------------------------
A-------------------------------------------
D-18-18-18-18-18-18-18-18-18-18-18-18-18-18-
C--X--X--X--X--X--X--X--X--X--X--X--X--X--X-
G-16-16-16-16-16-16-16-16-16-16-16-16-16-16-
C-------------------------------------------

F--------------------------------------------------
A--------------------------------------------------
D-----19----19----19----19----19----19----19----19-
C--------------------------------------------------
G--17----17----17----17----17----17----17----17----
C--------------------------------------------------

F--------------------------------------------------
A--------------------------------------------------
D--------------------------------------------------
C-----20----20----20----20----20----20----20----20-
G--18----18----18----18----18----18----18----18----
C--------------------------------------------------

F--------------------------------------------------
A--------------------------------------------------
D-----19----19----19----19----19----19----19----19-
C--------------------------------------------------
G--17----17----17----17----17----17----17----17----
C--------------------------------------------------

F--------------------------------------------------
A--------------------------------------------------
D--------------------------------------------------
C-----20----20----20----20----20----20----20----20-
G--18----18----18----18----18----18----18----18----
C--------------------------------------------------

Outro
(Let 0 ring throughout)
F---------------------------------------------------------
A---------------------------------------------------------
D---10--9-9-/-12---10----9-/-10--9---9-/-10---7---7---7-7-
C----x--x-x-/--x----x----x-/--x--x---x-/--x---x---x---x-x-
G----8--7-7-/-10----8----7-/--8--7---7-/--8---5---5---5-5-
C--0------0-/--0--0-----0-------0---0--------0---0---0----

F---------------------------------------------------------
A---------------------------------------------------------
D---14----12----15----14----12-/-14---12----12-/-14---10--
C----X-----X-----X-----X-----X-/--X----X-----X-/--X----X--
G---12----10----13----12----10-/-12---10----10-/-12----8--
C-0-----0------0-----0-----0---------0-----0---------0----

Order:

Intro
Chorus with Riff B
Chorus with Rhy. Fig. 1
Riff C
Riff B
Riff C
Riff B
Chorus w/ Riff B
Chorus w/ Rhy. Fig. 1, Riff B
Chorus w/ Riff B
Chorus w/ Rhy. Fig. 1, Riff B
Chorus w/ Rhy. Fig. 1, Riff B
Solo
Chorus w/ Riff B
Chorus w/ Rhy. Fig. 1, Riff B
Chorus w/ Rhy. Fig. 1
Outro


Lyrics:

The piercing radiant moon
the storming of poor June
all the life running through her hair
Approaching guiding light
our shallow years in fright
dreams are made winding through my head
Before you know, awake

Your lives are open wide
the V chip gives them sight
of all the life running through her hair
the spiders all in tune 
the evening of the moon
dreams are made winding through her hair
Before you know

Before you know
I will be waiting all awake
Dreams are made winding through her hair



Thats it, send email to-----  taylo371@msu.edu


Comments