System Of A Down - Spiders Chords & Tabs

 

Spiders Chords & Tabs

System Of A Down Chords & Tabs

Version: 11 Type: Tab 0 ratings
1 star 2 stars 3 stars 4 stars 5 stars
comments

Spiders Tab

Spiders
System of a Down
Tabbed by KoRny Freak
Tuning: CGCFAD

intro/verse                              x2
D------------------------------------------|
A------------------------------------------|
F------------------------------------------|
C------------------------------------------|
G-------7---------7-------5------5-------5-|
C----0-------0--------0-------0-------0----|


D------------------------------------------|
A------------------------------------------|
F------------------------------------------|
C------------------------------------------|
G------8-------7------10-------8----7h--8--|
C---0-------0------0--------0----0---------|

Chorus
D---------------------------------------------|
A---------------------------------------------|
F---------------------------------------------|
C---------------------------------------------|
G--10--10--10--10--10--10--10--10--10--10--10-|
C--10--10--10--10--10--10--10--10--10--10--10-|

D-----------------------------------|
A-----------------------------------|
F---14--12---15-----14-----12/14----|
C---X---X----X------X---------------|
G---12--10---13-----12----10/12-----|
C-0-------------0------0------------|

D-------------------------------------|
A-------------------------------------|
F---12--12/14--10--10--10--10--10--10-|
C---X---X--X---X---X---X---X---X---X--|
G---10--10/12--8---8---8---8---8---8--|
C-0-----------------------------------|

[ Tab from: http://www.guitartabs.cc/tabs/s/system_of_a_down/spiders_tab_ver_11.html ]
D------------------------------------------------|
A------------------------------------------------|
F------------------------------------------------|
C------------------------------------------------|
G--10--10--10--10--10--10--10--10--10--10--10----|
C--10--10--10--10--10--10--10--10--10--10--10----|


D------------------------------------------------|
A------------------------------------------------|
F------------------------------------------------|
C------------------------------------------------|
G----8-8-8-8-8---8---8---7-7-7-7-7-7-7-----------|
C----8-8-8-8-8---8---8---7-7-7-7-7-7-7-----------|

D--------------------------------|
A--------------------------------|
F-----9--9---7----7-----7--7-----|
C-----X--X---X----X-----X--X-----|
G-----7--7---5----5-----5--5-----|
C--0-------0----0----0-----------|


(guitar solo)
VIBRATO - - - - - - | x2
D---------------------|  The Strumming parttern for this
A---------------------|  part isn't included - listen to
F-14---15----15/18\---|  the cd. it isn't that difficult
C---------------------|  to figure it out.
G-12---13----13/16\---|
C---------------------|

Play the next two bars twice
D------------------------------------------------|
A------------------------------------------------|
F------19---19---19---19---19---19---19---19-----|
C------------------------------------------------|
G---17---17---17---17---17---17---17---17--------|
C------------------------------------------------|

D------------------------------------------------|
A------------------------------------------------|
F-----20---20---20---20---18---18---18---18------|
C------------------------------------------------|
G--18---18---18---18---16---16---16---16---------|
C------------------------------------------------|

then play chorus
the outro is pretty much the same as the intro but as octaves instead. you 
can figure it out.

if you have any questions or comments email me at 
silverchair_surfing_bird@hotmail.com





Comments