System Of A Down - Spiders Chords & Tabs

 

Spiders Chords & Tabs

System Of A Down Chords & Tabs

Version: 4 Type: Bass Tab 0 ratings
1 star 2 stars 3 stars 4 stars 5 stars
comments

Spiders Bass Tab

   
                                "Spiders" by System of a Down
                                     tabbed by Drabaz30

tuning - Drop C (C,G,C,F)
===========================================================================

   Intro
F|----------------------------------------------------------------|
C|--2~~2~~0~~0~~0~--2~~2~~0~~0~~0~--3~~2~/5~~3~~23--2~~2~~0~~0~~0~|
G|----------------------------------------------------------------|
C|0~~~0~~0~~0~~0~~0~~~0~~0~~0~~0~~0~~~0~~0~~0~~0~~0~~~0~~0~~0~~0~~|
================================================================================

   Verse 1
F|----------------------------------------------------------------|
C|--2~~2~~0~~0~~0~--2~~2~~0~~0~~0~--3~~2~/5~~3~~23--2~~2~~0~~0~~0~|
G|----------------------------------------------------------------|
C|0~~~0~~0~~0~~0~~0~~~0~~0~~0~~0~~0~~~0~~0~~0~~0~~0~~~0~~0~~0~~0~~|

F|----------------------------------------------------------------|
C|--2~~2~~0~~0~~0~--2~~2~~0~~0~~0~--3~~2~/5~~3~~23--2~~2~~0~~0~~0~|
G|----------------------------------------------------------------|
C|0~~~0~~0~~0~~0~~0~~~0~~0~~0~~0~~0~~~0~~0~~0~~0~~0~~~0~~0~~0~~0~~|
================================================================================

   Chorus 1
F|--------------------------------|
C|--------------------------------|
G|3-3-3-3-3-3-3-3-3-3-3-3-3-3-3-3-|
C|--------------------------------|

F|--------------------------------|
C|--3~~2~/5~~3~~23--2~~2~~0~~0~~0~|
G|--------------------------------|
C|0~~~0~~0~~0~~0~~0~~~0~~0~~0~~0~~|

F|--------------------------------|
C|--------------------------------|
G|3-3-3-3-3-3-3-3-1-1-1-1-0-0-0-0-|
C|--------------------------------|

F|--------------------------------|
C|--2~~2~~0~~0~~0~--2~~2~~0~~0~~0~|
G|--------------------------------|
C|0~~~0~~0~~0~~0~~0~~~0~~0~~0~~0~~|
================================================================================

   Verse 2
F|----------------------------------------------------------------|
C|--2~~2~~0~~0~~0~--2~~2~~0~~0~~0~--3~~2~/5~~3~~23--2~~2~~0~~0~~0~|
G|----------------------------------------------------------------|
C|0~~~0~~0~~0~~0~~0~~~0~~0~~0~~0~~0~~~0~~0~~0~~0~~0~~~0~~0~~0~~0~~|

F|----------------------------------------------------------------|
C|--2~~2~~0~~0~~0~--2~~2~~0~~0~~0~--3~~2~/5~~3~~23--2~~2~~0~~0~~0~|
G|----------------------------------------------------------------|
C|0~~~0~~0~~0~~0~~0~~~0~~0~~0~~0~~0~~~0~~0~~0~~0~~0~~~0~~0~~0~~0~~|
================================================================================
[ Tab from: http://www.guitartabs.cc/tabs/s/system_of_a_down/spiders_btab_ver_4.html ]
   Chorus 2
F|--------------------------------|
C|--------------------------------|
G|3-3-3-3-3-3-3-3-3-3-3-3-3-3-3-3-|
C|--------------------------------|

F|--------------------------------|
C|--3~~2~/5~~3~~23--2~~2~~0~~0~~0~|
G|--------------------------------|
C|0~~~0~~0~~0~~0~~0~~~0~~0~~0~~0~~|

F|--------------------------------|
C|--------------------------------|
G|3-3-3-3-3-3-3-3-1-1-1-1-0-0-0-0-|
C|--------------------------------|
================================================================================

   Bridge
F|----------------------------------------------------------------|
C|0001001001001000111111114444444400010010010010001111111144444444|
G|----------------------------------------------------------------|
C|----------------------------------------------------------------|

F|----------------------------------------------------------------|
C|----------------------------------------------------------------|
G|----------------------------------------------------------------|
C|0000000000000000111111114444444400000000000000001111111144444444|
================================================================================

   Chorus 3
F|--------------------------------|
C|--------------------------------|
G|3-3-3-3-3-3-3-3-3-3-3-3-3-3-3-3-|
C|--------------------------------|

F|--------------------------------|
C|--3~~2~/5~~3~~23--2~~2~~0~~0~~0~|
G|--------------------------------|
C|0~~~0~~0~~0~~0~~0~~~0~~0~~0~~0~~|

F|--------------------------------|
C|--------------------------------|
G|3-3-3-3-3-3-3-3-1-1-1-1-0-0-0-0-|
C|--------------------------------|

F|--------------------------------|
C|--3~~2~/5~~3~~23--2~~2~~0~~0~~0~|
G|--------------------------------|
C|0~~~0~~0~~0~~0~~0~~~0~~0~~0~~0~~|

F|--------------------------------|
C|--------------------------------|
G|3-3-3-3-3-3-3-3-1-1-1-1-0-0-0-0-|
C|--------------------------------|
================================================================================

   Outro
F|----------------------------------------------------------------|
C|--2~~2~~0~~0~~0~--2~~2~~0~~0~~0~--2~~2~~0~~0~~0~--2~~2~~0~~0~~0~|
G|----------------------------------------------------------------|
C|0~~~0~~0~~0~~0~~0~~~0~~0~~0~~0~~0~~~0~~0~~0~~0~~0~~~0~~0~~0~~0~~|

F|----------------------------------------------------------------|
C|--3~~2~/5~~3~~23--2~~2~~0~~0~~0~--3~~2~/5~~3~~23--2~~2~~0~~0~~0~|
G|----------------------------------------------------------------|
C|0~~~0~~0~~0~~0~~0~~~0~~0~~0~~0~~0~~~0~~0~~0~~0~~0~~~0~~0~~0~~0~~|
Comments