System Of A Down - Spiders Chords & Tabs

 

Spiders Chords & Tabs

System Of A Down Chords & Tabs

Version: 3 Type: Bass Tab 0 ratings
1 star 2 stars 3 stars 4 stars 5 stars
comments

Spiders Bass Tab

   
Song: Spiders
Band: System of a Down
Album: System of a Down
Tab correction by:  Stephen Short (SMS_Stylee@yahoo.com)

This version is much more accurate than the old one.

Tuning: C,G,C,F

INTRO   

1 --9--9--7--7--7-----9--9--7--7--7-----10--9--12--10--9-10---9--9--7--7--7----
2 -0--0--0--0--0--0-0---0--0--0--0--0-0----0--0---0---0------0--0--0--0--0-----
3 -----------------------------------------------------------------------------
4 -----------------------------------------------------------------------------

VERSE 1  (X2) 
1 -----9--9--7--7--7-----9--9--7--7--7-----10--9--12--10--9-10----9--9--7--7--7-
2 -0-----0--0--0--0--0-----------------0------0--0---0---0-----0-0--0--0--0--0--
3 -----------------------------------------------------------------------------
4 ---0-----------------0-----------------0-------------------------------------

CHORUS 1

  Chorus Riff 1 (X1) 

1 ----------------------------------------------------------
2 ----------------------------------------------------------
3 -3--3-3-3--3-3--3-3--3-3-3--3--3-3-3--3-3--3-3--3-3-3-----
4 ----------------------------------------------------------

  Chorus Riff 2 (X1)

1 --10--9--12--10--9-10-----9--9--7--7--7-
2 -0---0--0---0---0-----0-0---0--0--0--0--
3 ----------------------------------------
4 ----------------------------------------

  Chorus Riff 3 (X1)

1 ---------------------------------------------------------
2 ---------------------------------------------------------
3 -3--3-3-3--3-3--3-3-3--1--1-1-1--1-0--0--0-0-0-----------
4 ---------------------------------------------------------



VERSE 2
[ Tab from: http://www.guitartabs.cc/tabs/s/system_of_a_down/spiders_btab_ver_3.html ]
1 --9--9--7--7--7-----9--9--7--7--7-----9--9--7--7--7----9--9--7--7--7-----
2 -0--0--0--0--0--0----0--0--0--0--0-----0--0--0--0--0----0--0--0--0--0---
3 -------------------------------------------------------------------------
4 ------------------0----------------0-----------------0-----------------0-

1 -10--9--12--10--9-10-----9--9--7--7--7-
2 ----0--0---0---0-----0-0---0--0--0--0--
3 ---------------------------------------
4 ---------------------------------------

CHORUS 2-Same as first chorus

GUITAR SOLO

  Solo Riff 1 (X2)
1 -------------------------------------------------------------------------
2 -------------------------------------------------------------------------
3 -5--5--5--5--5--5--5--5-6-6-6-6-6-6-6-6-9-9-9-9-9-9-9-9------------------
4 -------------------------------------------------------------------------

  Solo Riff 2 (X2)

1 -------------------------------------------------------------------------
2 -------------------------------------------------------------------------
3 -------------------------------------------------------------------------
4 -0-0-0-0-0-0-0-0-0-0-0-0-0-0-0-0-1-1-1-1-1-1-1-1-4-4-4-4-4-4-4-4---------

CHORUS 3
 
  Riff 1
  Riff 2
  Riff 3
  Riff 2
  Riff 3

VERSE 3

1 --9--9--7--7--7-----9--9--7--7--7-----9--9--7--7--7----9--9--7--7--7-----
2 -0--0--0--0--0--0-0---0--0--0--0--0-0---0---0---0--0-0---0--0--0--0--0-0-
3 -------------------------------------------------------------------------
4 -------------------------------------------------------------------------

1 -10--9--12--10--9-10-----9--9--7--7--7-----10--9--12--10--9-10-----9--9--7--7--7-
2 ----0--0---0---0-----0-0---0--0--0--0--0-0----0--0---0---0-----0-0---0--0--0--0--
3 ---------------------------------------------------------------------------------
4 ---------------------------------------------------------------------------------
Comments