System Of A Down - Spiders Chords & Tabs

 

Spiders Chords & Tabs

System Of A Down Chords & Tabs

Version: 2 Type: Bass Tab 0 ratings
1 star 2 stars 3 stars 4 stars 5 stars
comments

Spiders Bass Tab

   
-=Spiders=- System of a Down
============
tabbed by Javier Rodríguez

tab: Tunning(B flat,E,A,C,G)

---7---7---5---5---5-------------
0---0---0---0---0----00----------
---------------------------------
---------------------------------
---------------------------------

---8---7---10---8---78-----------
-----0---0---0---0---00----------
---------------------------------
---------------------------------
---------------------------------
[ Tab from: http://www.guitartabs.cc/tabs/s/system_of_a_down/spiders_btab_ver_2.html ]
---7---7---5---5---5-------------
----0---0---0---0---0------------
---------------------------------
---------------------------------
----------------------0----------

-------------------------------------
-------------------------------------
111-1111-11-11-1-1-1-1-11------------
--------------------------5555-4444--
------------------------------------0

---8---7---10---8---78---7---7---5---5---5---
-----0---0---0---0-----0---0---0--0---0----00
---------------------------------------------
---------------------------------------------
---------------------------------------------

---7---7---5---5---5----
----0---0---0---0---00--
------------------------
------------------------
------------------------


Comments