System Of A Down - Soil Chords & Tabs

 

Soil Chords & Tabs

System Of A Down Chords & Tabs

Version: 5 Type: Tab 0 ratings
1 star 2 stars 3 stars 4 stars 5 stars
comments

Soil Tab

System of a down - Soil 
Tab by Luke my Ulitmate Guitar sn is immoralflames
Email : immoralflames1@aol.com

Tunning Drop D       DADGBE or normal EADGBE which ever you think is better
*Listen to song to tell how long to play each note*

KEY h= Hamer
    ^= Pull string
    
Intro 0:00-0:06
e-------------- Repeat as many times as needed and
B-------------- go down then up everytime you strum
G--999999999---
D--xxxxxxxxx---
A--777777777---
E--------------

Riff 1 0:06-0:19
e------------------------- Repeat as needed
B------------------------- Down strum
G-------------------------
D--5434345-434345-434345--
A--5434345-434345-434345--
E--5434345-434345-434345--

Riff 2 0:19-0:44
This part of the song is played just like riff one only you strum the strings lighter,
or you can palm mute it , which ever fits you better

Riff 3 0:44-0:56
e------------------------- Repeat as needed
B------------------------- Down strum
G-------------------------
D--5434345-434345-434345--
A--5434345-434345-434345--
E--5434345-434345-434345--

Riff 4 0:56 - 1:08
e-------66666------88888------77777------1010101010- Down & up strum
B-------55555------77777------88888------1010101010- on the E and B
G--------------------------------------------------- 
D--3----------3----------3----------3--------------- let 3 note ring
A--3----------3----------3----------3---------------     3
E--3----------3----------3----------3---------------     3

Riff 5 1:08 - 1:34
Repeat Riff 2

Riff 6 1:34-1:46
e------------------------- Repeat as needed
B------------------------- Down strum
G-------------------------
D--5434345-434345-434345--
A--5434345-434345-434345--
E--5434345-434345-434345--

Riff 7 1:46 - 2:11
e----------------------------66---------------66--10-10-10-10------
B---------------------555555-----------555555-----10-10-10-10------
G-------------------------------------------------10-10-10-10--10--
D--xx--xx--xx--3-3333-----------3-3333-------------------------10--
A--xx--xx--xx--3-3333-----------3-3333-------------------------10--
E--xx--xx--xx--3-3333-----------3-3333-----------------------------
[ Tab from: http://www.guitartabs.cc/tabs/s/system_of_a_down/soil_tab_ver_5.html ]
Guitar Solo  2:11-2:50
e--12-13---12-13-15-------------12-13-------
B--------------------10^---------------10^--
G-------------------------------------------
D-------------------------------------------
A-------------------------------------------
E-------------------------------------------
                                            |repeat section|
e-------------------------------------------------------------
B------------------------------------------------10-------10--
G--------------------------------------x----10h12----10h12----
D------3---3---3---3---3--XX----3---3--x----------------------
A---3h5-3h5-3h5-3h5-3h5-3-XX-3h5-3h5--------------------------
E-------------------------------------------------------------

e-----------11^-------------10-10-10-----10-10-10--------
B--12--10-------------------10-10-10-----10-10-10--------
G---------------12101210----10-10-10-----10-10-10--------
D------------------------12-----------12-----------12----
A--------------------------------------------------------
E--------------------------------------------------------

e--------------------14-15151515151515151515----------
B-------------15//12----------------------------------
G---12-10-12------------------------------------------
D-----------------------------------------------------
A-----------------------------------------------------
E-----------------------------------------------------

Riff 8 2:51-2:57
e-------------------------------
B-------------------------------
G-------------------------------
D--5434345-7-5434345-7----------
A--5434345-7-5434345-7----------
E--5434345-7-5434345-7----------

Riff 9 2:57-3:11
e--1010-99-88-99-88-99-1010-1111-1010-1111-1212-1111-1212-1111-1010-
B--1010-99-88-99-88-99-1010-1111-1010-1111-1212-1111-1212-1111-1010-
G-------------------------------------------------------------------
D-------------------------------------------------------------------
A-------------------------------------------------------------------
E-------------------------------------------------------------------

e--1212-1111-1010-1111-1010-1111-1212-1111-1212-1313-1414-1515---
B--1212-1111-1010-1111-1010-1111-1212-1111-1212-1313-1414-1515---
G----------------------------------------------------------------
D----------------------------------------------------------------
A----------------------------------------------------------------
E----------------------------------------------------------------

e--1414-1313-1212-1313-1212----
B--1414-1313-1212-1313-1212----
G------------------------------
D------------------------------
A------------------------------
E------------------------------

Final Riff 3:11-3:24
e------------------------- strum down
B-------------------------
G-------------------------
D--5434345-434345-434345--
A--5434345-434345-434345--
E--5434345-434345-434345--
Comments