System Of A Down - Soil Chords & Tabs

 

Soil Chords & Tabs

System Of A Down Chords & Tabs

Version: 4 Type: Tab 0 ratings
1 star 2 stars 3 stars 4 stars 5 stars
comments

Soil Tab

   
PART 1 [THE PART WHEN HE SCREAMS WITH STOPS "DONT YOU,REALIZE"]

D------------------------------------------------------
A--------------15-------15----15-----15-15-------------
F------------------------------------------------------
C-12-12-12-12-----12-12----12----12--------------------
G------------------------------------------------------
C------------------------------------------------------

D------------------------------------------------------
A-15-15-15---15-15--15-15--15--------DO FOUR TIMES
F------------------------------------------------------
C------------------------------------------------------
G------------------------------------------------------
C------------------------------------------------------

D------------------------------------------------------
A-14H15--17-18--17-18-20------14H15--17-18-------------
F------------------------14B---------------14B---------
C------------------------------------------------------
G------------------------------------------------------
C------------------------------------------------------

PART 2

D------------------------------------------------------
A------------------------------------------------------
F------------------------------------------------------
C------------------------------------------------------
G-5H7H8P7-DO IT 8 TIMES AND THEN -----3H5-DO THIS HOLE LINE TWICE
C------------------------------------------------------

D------------------------------------------------------
A------------------------------------------------------
F-7H9H10P9-SEVEN TIMES AND THE 8TH -7H9H10P7-----------
C------------------------------------------------------
G------------------------------------------------------
C------------------------------------------------------

D------------------------------------------------------
A-11---13-11-10S6----6----DO 15 TIMES AND THE 16TH TIME
F--------------------7---------------------------------7H9H10P7---
C------------------------------------------------------
G------------------------------------------------------
C------------------------------------------------------
[ Tab from: http://www.guitartabs.cc/tabs/s/system_of_a_down/soil_tab_ver_4.html ]
D---------------21-------22----------------------------
A---14BU-BD-S20----20-20---20-20-----------------------
F------------------------------------------------------
C------------------------------------------------------
G------------------------------------------------------
C------------------------------------------------------

I DONT KNOW THE CHORDS PART.........
STILL......
THE SOLO CONTINUE

PART THREE

D-------------------------------------------------------------
A--7H8-8-8-8P7-7-7-7S4-4-4-4S3-3-3-3H4-4-4-4S7-7-7-7H8-8-8-8P7
F-------------------------------------------------------------
C-------------------------------------------------------------
G-------------------------------------------------------------
C-------------------------------------------------------------

D--------------------------------------------------
A-7H8-8-8S11-11-11H10-10-10S8-8-8S7-7-7S4-4-4S3-3-3
F--------------------------------------------------
C--------------------------------------------------
G--------------------------------------------------
C--------------------------------------------------

D-14H15-15-15-15P14-14-14-14S11-11-11-11S10-10-10-10H11-11-11-
A-------------------------------------------------------------
F-------------------------------------------------------------
C-------------------------------------------------------------
G-------------------------------------------------------------
C-------------------------------------------------------------

D-11S14-14-14-14H15-15-15-15P14------------------------
A------------------------------------------------------
F------------------------------------------------------
C------------------------------------------------------
G------------------------------------------------------
C------------------------------------------------------

D-14H15-15-15S18-18-18H17-17-17S15-15-15S14-14-14S11-11
A------------------------------------------------------
F------------------------------------------------------
C------------------------------------------------------
G------------------------------------------------------
C------------------------------------------------------

D-11S10-10-10
A------------
F------------
C------------
G------------
C------------


THIS IS THE BEST I COULD DO
RON...
Comments